Eagles - Already Gone Chords & Tabs

 

Already Gone Chords & Tabs

Eagles Chords & Tabs

Version: 4 Type: Tab 0 ratings
1 star 2 stars 3 stars 4 stars 5 stars
comments

Already Gone Tab

----------------------------------------------------------------------------
                         Already Gone-Eagles
----------------------------------------------------------------------------
Trey Hill
Sorry, don't have an email address





Tuning:
[ Tab from: http://www.guitartabs.cc/tabs/e/eagles/already_gone_tab_ver_4.html ]
e|-----------------3------2------0-----------------------------------------|
B|-----------------0------3------1-----------------------------------------|
G|-----------------0------2------0-----------------------------------------|
D|----------5-7----0------0------2-----------------------------------------|
A|------5-7--------2-------------3---------------------5-7/8\7-5----3----5-|
E|--5-7------------3--------------------------3----5-7---------------------|



e|----------------------|
B|----------------------|
G|----------------------|
D|---5-7/8\7-5----------|
A|-7--------------------|
E|----------------------|


| / slide up
| \ slide down

============================================================================
Comments