Eagles - After The Thrill Is Gone Intro Chords & Tabs

 

After The Thrill Is Gone Intro Chords & Tabs

Eagles Chords & Tabs

Version: 2 Type: Tab 0 ratings
1 star 2 stars 3 stars 4 stars 5 stars
comments

After The Thrill Is Gone Intro Tab

   
After the Thrill is Gone by The Eagles

Great song, listen for the timing


  G                      C    

e|--10/12--12\10--7\5--3--5/7--0------|
B|--10/12--12\10--7\5--3--5/7--1------|
G|------------------------------------| X2
D|------------------------------------|
A|------------------------------------|
E|------------------------------------|

    Am        C
[ Tab from: http://www.guitartabs.cc/tabs/e/eagles/after_the_thrill_is_gone_intro_tab_ver_2.html ]
e|--5\3--5\3--7h10--10/12\10-----|
B|--5\3--5\3--7h10--10/12\10-----|
G|-------------------------------|
D|-------------------------------|
A|-------------------------------|
E|-------------------------------|

    Am              C  

e|--5\3--7\5--3h5p3-----|
B|--5\3--7\5--3h5p3-----|
G|----------------------|
D|----------------------|
A|----------------------|
E|----------------------|
Comments