Dystrophy - Smear It On The Retard Chords & Tabs

 

Smear It On The Retard Chords & Tabs

Dystrophy Chords & Tabs

Version: 1 Type: Tab 0 ratings
1 star 2 stars 3 stars 4 stars 5 stars
comments

Smear It On The Retard Tab

Dystrophy - Smear It On The Retard
Tabbed By: tyler dandy
EMail: tydandy@hotmail.comE-8--8--8--x-7-7-7-x-6-6-5-4-------------------
b-8--8--8--x-7-7-7-x-6-6-5-4-------------------
g-9--9--9--x-8-8-8-x-7-7-6-5-------------------
d-10-10-10-x-9-9-9-x-8-8-7-6-------------------        x1
a-10-10-10-x-9-9-9-x-8-8-7-6-------------------
e-8--8--8--x-7-7-7-x-6-6-5-4------------------- 


E---------------------------------------------
b---------------------------------------------
g---------8-8-8-0-----------------------------
d-4-4-0---8-8-8-0-----------------------------        x4
a-4-4-0---6-6-6-0-----------------------------
e-2-2-0---------------------------------------

E-6-6-6-x-5-5-5-x-4-4-3-2-----------------------
b-6-6-6-x-5-5-5-x-4-4-3-2-----------------------
g-7-7-7-x-6-6-6-x-5-5-4-3-----------------------
d-8-8-8-x-7-7-7-x-6-6-5-4-----------------------      x1
a-8-8-8-x-7-7-7-x-6-6-5-4-----------------------
e-6-6-6-x-5-5-5-x-4-4-3-2-----------------------
[ Tab from: http://www.guitartabs.cc/tabs/d/dystrophy/smear_it_on_the_retard_tab.html ]
E-------------------------------------------
b-------------------------------------------
g---------7-7-7-0---------------------------
d-3-3-0---7-7-7-0---------------------------         x4
a-3-3-0---5-5-5-0---------------------------
e-1-1-0-------------------------------------

E-5-5-5-x-4-4-4-x-3-3-2-1-----------------------
b-5-5-5-x-4-4-4-x-3-3-2-1-----------------------
g-6-6-6-x-5-5-5-x-4-4-3-2-----------------------
d-7-7-7-x-6-6-6-x-5-5-4-3-----------------------      x1
a-7-7-7-x-6-6-6-x-5-5-4-3-----------------------
e-5-5-5-x-4-4-4-x-3-3-2-1-----------------------


then the bass plays the whole thing over again 
then the guitar does this:

E------------------------------------------
b------------------------------------------
g-----------8-8-x-x-x----------------------
d-4-4-x-x-x-8-8-x-x-x----------------------         x2
a-4-4-x-x-x-6-6-x-x-x----------------------
e-2-2-x-x-x--------------------------------

E-------------------------------------
b-------------------------------------
g-----------7-7-x-x-x-----------------
d-3-3-x-x-x-7-7-x-x-x-----------------           x2
a-3-3-x-x-x-5-5-x-x-x-----------------
e-1-1-x-x-x---------------------------


then.....

E----------------------------------------
b----------------------------------------
g----------------------------------------
d----------------------------------------      x1
a-------------------------/10------------
e-------------------------/8-------------
Comments