Dynamite Hack - Anyway Chords & Tabs

 

Anyway Chords & Tabs

Dynamite Hack Chords & Tabs

Version: 2 Type: Bass Tab 0 ratings
1 star 2 stars 3 stars 4 stars 5 stars
comments

Anyway Bass Tab

"ANYWAY"
by: DYNAMITE HACK
TABBED BY: ADAM SIMMONS 
ALBUM: SUPERFAST
MEMBER OF THE BASS TAB ARCHIVE TABBING ARNY
IF YOU HAVE ANY QUESTIONS OR COMMENTS E-MAIL ME AT kornfan_38676@yahoo.com

CHORUS:
[ Tab from: http://www.guitartabs.cc/tabs/d/dynamite_hack/anyway_btab_ver_2.html ]
G---------------------------------------------------------------------------------------
D---------------------------------------------------------------------------------------
A--2--2--2--2--2--2--2--2---------------------------------------------------------------
E--------------------------0--0--0--0--0--2--2--2--2--2---4--4--4--4--4--4--0--0--0--0--

G-----------------
D-----------------
A-----------------
E-0-2--2--2--2--2-

VERSE:

G----------------------------------------------------------------------
D----------------------------------------------------------------------
A--------------------------------------2--2--2--2--2--2----------------
E--4--4--4--4--4--4--4--2--0--0--0--0--------------------0--0--0--0--0-
Comments