Dylan Bob - You Belong To Me Chords & Tabs

 

You Belong To Me Chords & Tabs

Dylan Bob Chords & Tabs

Version: 1 Type: Tab 0 ratings
1 star 2 stars 3 stars 4 stars 5 stars
comments

You Belong To Me Tab

                            You Belong To Me
                               Bob Dylan
                            tyhe@comcast.net





Hope you like this tab.  I love this song.  Its 99% correct.  Dylan does a little strumming between notes
so listen to the song and just play around with it.  I'll tab out the different chord positions too.  CAPO ON 4TH FRET!!!  Might be tuned down a 1/2 step too.  If you can learn to play this
then you can figure out the rest of the song.  Just different variations.  Email me with comments
corrections
etc..
Enjoy!!!

CAPO ON 4TH FRET


                                                                        
E---||-----------------------------------------------0------------------
B---||--------------------------0-----0--1--1--1--1--1--1--1h1----------
G---||*-----0--0--0-----0-0-----0-----0--2--2--0--2-----2--0------------
D---||*--2--0--2--0--0--2h2--2-----2-----3-------------------2-----2----
A---||---3-----------3----2----------------------------------3--3-------
E---||------------------------------------------------------------------
                                                                        
[ Tab from: http://www.guitartabs.cc/tabs/d/dylan_bob/you_belong_to_me_tab.html ]
                                                                        
E------------------------------------------0----------------------------
B---1-----1--------1--1---------h1---------1---------1--1---------------
G---0-----0--------2--1--------0-2--1---2--2---------0--0-----0--0------
D------2--------3-----------2--0-2--2---3---------------2-----2---------
A------3-----3--------------3--------^--------0---0--------3------------
E------------1--------------------------------5^--3---------------------
                                                                        

                                                                        
E-----------------------------------------------------------------------
B---1--1-----1----------------------------------------------------------
G------0--0--0----------------------------------------------------------
D---------2-----2-------------------------------------------------------
A---------------3-------------------------------------------------------
E-----------------------------------------------------------------------
                                                                        

       Chord Positions                                                  
E------0--------0--------0--------0--------1--------0--------0----------
B------1--------0--------1--------1--------1--------1--------3----------
G------0--------0--------2--------0--------2--------2--------2----------
D------2--------2--------3--------2--------3--------2--------3----------
A------3--------2--------0--------3--------3--------0--------0----------
E------0--------0--------0--------0--------1--------0--------0----------
                                                                        

                                                                        
E---0-------------------------------------------------------------------
B---1-------------------------------------------------------------------
G---0-------------------------------------------------------------------
D---2-------------------------------------------------------------------
A---3-------------------------------------------------------------------
E---0-------------------------------------------------------------------
                                                                        

Comments