Dylan Bob - Like A Rolling Stone Chords & Tabs

 

Like A Rolling Stone Chords & Tabs

Dylan Bob Chords & Tabs

Version: 1 Type: Tab 2 ratings
1 star 2 stars 3 stars 4 stars 5 stars
comments

Like A Rolling Stone Tab

   
ike A Rolling Stone - Bob Dylan
Tabing: Sindre Aalvik Eide
Coments? send it to: zzz@zworg.com

This is how I play it:
You have to figure out the rhythm yourself. It sounds good if you 
use plenty of upstrokes.

Intro: (Not the original, but it works)
    C     F     G
E|--3-3---1-1---3-3-3--|
B|--5-5---1-1---3-3-3--|
G|--5-5---2-2---4-4-4--|
D|--5-5---3-3---5-5-5--|
A|--3-3---3-3---5-5-5--|
E|--3-3---1-1---3-3-3--|


Verse riff 1:
    C       Dm       Em      F        G    C
E|--3-------5--------7-------8--------10-\-3|
B|--5-------6--------8-------10-------12-\-5|
G|--5-------7--------9-------10-------12-\-5|   Play 2 times
D|--5-------7--------9-------10-------12-\-5|
A|--3-------5--------7-------8--------10-\-3|
E|--3-------5--------7-------8--------10-\-3|
  
[ Tab from: http://www.guitartabs.cc/tabs/d/dylan_bob/like_a_rolling_stone_tab.html ]
Verse riff 2:
    F     G      F     G
E|--8------10-------8------10--|
B|--10-----12-------10-----12--|
G|--10-----12-------10-----12--|   Play 1 time
D|--10-----12-------10-----12--|
A|--8------10-------8------10--|
E|--8------10-------8------10--|
 

Verse riff 3:
    F       Em      Dm      G
E|--8-------7-------5-------3--|
B|--10------8-------6-------5--|
G|--10------9-------7-------5--|   Play 2 times
D|--10------9-------7-------5--|
A|--8-------7-------5-------3--|
E|--8-------7-------5-------3--|
  

Verse riff 4:
    Dm      F       G
E|--5-------1-------3--|
B|--6-------1-------3--|
G|--7-------2-------4--|   Play 1 time
D|--7-------3-------5--|
A|--5-------3-------5--|
E|--5-------1-------3--|
  

Chorus:
    C       F       G
E|--3-------1-------3--|
B|--5-------1-------3--|
G|--5-------2-------4--|   Play 5 times
D|--5-------3-------5--|
A|--3-------3-------5--|
E|--3-------1-------3--|
 how does it feel ...

    C       F       G
E|--3-------1-------3--|
B|--5-------1-------3--|
G|--5-------2-------4--|   Play the G-chord ´til you hear it’s
D|--5-------3-------5--|   time to start at the top again.
A|--3-------3-------5--|
E|--3-------1-------3--|
Comments