Dylan Bob - Knocking On Heavens Door Chords & Tabs

 

Knocking On Heavens Door Chords & Tabs

Dylan Bob Chords & Tabs

Version: 1 Type: Bass Tab 0 ratings
1 star 2 stars 3 stars 4 stars 5 stars
comments

Knocking On Heavens Door Bass Tab

From Christian HINAULT (Paris - FRANCE) 
Christian.Hinault@andra.fr

Subject: Knocking on heaven's door by Bob Dylan (Bass)

--------------------------------------------------------------------------------
--------------------------------------------------------------------------------
------------5------------5------------------------------------------------------
-3-------3-------------------5--5--5--5--5--5--5--5--5--------------------------
                                                                                
[ Tab from: http://www.guitartabs.cc/tabs/d/dylan_bob/knocking_on_heavens_door_btab.html ]
--------------------------------------------------------------------------------
--------------------------------------------------------------------------------
------------5----5--3--3--3--3-----------------5------------5-------------------
3--------3----------------------5---3--------3------------------5--5--5--5--5--5
                                                                                

--------------------------------------------------------------------------------
--------------------------------------------------------------------------------
-------------5------------5--3--3--3--3--3---------------5----------------------
3--------3----------------------------------3--------3--------------------------
                                                                                

--------------------------------------------------------------------------------
--------------------------------------------------------------------------------
-------5-----3------------------------------------------------------------------
--------------------------------------------------------------------------------
                                                                                
Have a nice Day!  :)

Comments