Dylan Bob - Desolation Row Paulward Version Chords & Tabs

 

Desolation Row Paulward Version Chords & Tabs

Dylan Bob Chords & Tabs

Version: 1 Type: Tab 2 ratings
1 star 2 stars 3 stars 4 stars 5 stars
comments

Desolation Row Paulward Version Tab

   
desolation row (my version) tab - for dylancnc


cant quite remember it but ill try give you an idea

[code]

INTRO, FILL BETWEEN VERSES AND END 

------2-3-2-0-2--------2-3-2-0-2--------2-3-2
----3----------------3----------------3------
--2----------------2----------------2--------
0----------------0----------------0----------
---------------------------------------------
---------------------------------------------

-0-2--------2--------------------------------
----------3---3------------------------------
--------2------------------------------------
------0--------------------------------------
---------------------------------------------
---------------------------------------------

VERSES

------2-------2-------0-2-0------------------
----3-------3-------3-------3-2--------0-5-3-
--2-------2-------2------------------0-------
0-------0-------0------------------0---------
---------------------------------------------
---------------------------------3-----------

-----------2-3-2-0-2-------------------------
2-0------3------------------2-------2-------2
-------2------------------2-------2-------2--
-----0------------------2-------2-------2----
----------------------0-------0-------0------
---------------------------------------------
[ Tab from: http://www.guitartabs.cc/tabs/d/dylan_bob/desolation_row_paulward_version_tab.html ]
---------------------------------2-3-2-0-2---
-3-2-0-2--------0-5-3-2-0------3-------------
--------------0--------------2---------------
------------0--------------0-----------------
---------------------------------------------
----------3----------------------------------

---------------------------------------2-3-2-
------0-------0-------0-5-3-2-0------3-------
----0-------0-------0--------------2---------
--0-------0-------0--------------0-----------
---------------------------------------------
3-------3-------3----------------------------

0-2--3---------------------------------------
-----3---------------------------------------
-----0---------------------------------------
-----0---------------------------------------
-----2---------------------------------------
-----3---------------------------------------

CHORUS (u-pstrokes, d-ownstrokes)

  d  d u d u d    d  d u d u d    d  d u d u
--2--2-3-3-3-2----0--0-0-0-0-0----3--3-3-3-3-
--3--3-3-3-3-3----2--2-3-3-3-2----3--3-3-3-3-
--2--2-2-2-2-2----2--2-2-2-2-2----0--0-2-2-2-
0-0--0-0-0-0-0----2--2-2-2-2-2----0--0-2-2-2-
----------------0-0--0-0-0-0-0----2--2-0-0-0-
--------------------------------3-3--3-------

d  d u d 
3--2-3-2-------------------------------------
3--3-3-3-------------------------------------
0--2-2-2-------------------------------------
0--0-0-0-------------------------------------
2--------------------------------------------
3--------------------------------------------

[/code]

hope this helps

_________________
[url]http://www.soundclick.com/paulward[/url]
Comments