Dying Tribe - My Will You Die Chords & Tabs

 

My Will You Die Chords & Tabs

Dying Tribe Chords & Tabs

Version: 1 Type: Tab 0 ratings
1 star 2 stars 3 stars 4 stars 5 stars
comments

My Will You Die Tab

   
This Band is not famous yet. They are from Flagstaff AZ.
Web Site: www.dyingtribe.com

Band: Dying Tribe
Song: My Will...You Die
Album: Represent

Tuning: D,A,D,G,B,E   x=mute

Hope This Is Close Enough

Repeat 2x Riff 1
|--------------------------------------------------------------------|
|--------------------------------------------------------------------|
|--------------------------------------------------------------------|
|-----------------------------------------------------------------77-|
|-----------------------------------------------------------------55-|
|--x-x-xx-x-x-xx-x-x-xx-x-x-xx-x-x-xx-x-x-xx-x-x-xx-x-x-xx-x-x-xx----|
[ Tab from: http://www.guitartabs.cc/tabs/d/dying_tribe/my_will_you_die_tab.html ]
Repeat 2x Riff 2
|-----------------------------------------------------|
|-----------------------------------------------------|
|-----------------------------------------------------|
|-----------------------3------------------------3----|
|-----------------------------------------------------|
|-xx--xx--xx--xx-x-x--1---1-xx--xx--xx--xx-x-x-1---1--|

Repeat 2x Riff 3
|---------------------------------------------------|
|---------------------------------------------------|
|---------------------------------------------------|
|---------------------------------------------------|
|7---5---3--3-2-x-3-2-x-3-2-x--7---5---3--x-x--x-x--|
|7---5---3--3-2-x-3-2-x-3-2-x--7---5---3--x-x--x-x--|

Riff 1

Riff 2 Repeat 2x

Riff 1

Riff 2 Repeat 2x

Riff 3 Repeat 2x

Riff 1

Riff 2 Repeat 2x

Riff 1

Riff 2 Repeat 2x

Riff 3 Repeat 2x


Riff 4 Repeat 6x  
|---------------------|
|---------------------|
|---------------------|
|---------------------|
|-xxx-1-1-1-1-1-1-2-1-|
|-xxx-1-1-1-1-1-1-2-1-|

Listen to Music To Find Out The Rest.  It's Pretty Easy
Comments