Dying Fetus - Grotesque Impalement Chords & Tabs

 

Grotesque Impalement Chords & Tabs

Dying Fetus Chords & Tabs

Version: 1 Type: Bass Tab 0 ratings
1 star 2 stars 3 stars 4 stars 5 stars
comments

Grotesque Impalement Bass Tab

5 string bass in standard tuning

(intro)
B|-----3-4-3----3-4-3----3-4-3-|-666-777--
E|---5--------5--------5-------|----------
A|-----------------------------|----------
D|-----------------------------|----------
G|-----------------------------|----------


(i am lost)                                       (only the first time)
B|---3-3-3-3-3-3-3--------3-3-3-3-3-3-3-----------|---------------6~---
E|------------------------------------------------|--------------------
A|-------------------55--------------------444555-|-(444555444333)-----
D|------------------------------------------------|--------------------
G|------------------------------------------------|--------------------


(live no more)
B|---7-6-4~---7-6-3~--|--6-7-6-7--
E|--------------------|-----------
A|--------------------|-----------
D|--------------------|-----------
G|--------------------|-----------


(overcome by fever)
B|---444444444--77-66--333333333--|--6-7-6-7---
E|--------------------------------|------------
A|--------------------------------|------------
D|--------------------------------|------------
G|--------------------------------|------------

[ Tab from: http://www.guitartabs.cc/tabs/d/dying_fetus/grotesque_impalement_btab.html ]
(birth of death begins)
B|---666-7-444-6-3~---666-7-444-6-3~---
E|-------------------------------------
A|-------------------------------------
D|-------------------------------------
G|-------------------------------------


(solo)
B|---666-222-333-666-555-666---|-5-5-5-5-6-6-6-6--
E|-----------------------------|------------------
A|-----------------------------|------------------
D|-----------------------------|------------------
G|-----------------------------|------------------


B|--6h5-6h5-333333--6h5-6h5------------
E|--------------------------5h4-44444--
A|-------------------------------------
D|-------------------------------------
G|-------------------------------------


B|---6h5-33-6h5-33-6-7-6-33-6h5-33-6h5-433333------
E|-------------------------------------------------
A|-------------------------------------------------
D|-------------------------------------------------
G|-------------------------------------------------


(i am lost)


B|--3---------5-4---5-4---33---------55-44----55-44--3~---
E|-----5-4--------4------------55-44-------44-------------
A|--------------------------------------------------------
D|--------------------------------------------------------
G|--------------------------------------------------------


(live no more/extended 6-7-6-7)


(overcome by fever)


(birth of death begins)


(end/guitar solo)
B|---3~--3------3h5-3h6-3h5-3h6-33~---
E|-----------4~-----------------------
A|------------------------------------
D|------------------------------------
G|------------------------------------
Comments