Dvda - What Would Brian Boitano Do Chords & Tabs

 

What Would Brian Boitano Do Chords & Tabs

Dvda Chords & Tabs

Version: 1 Type: Tab 0 ratings
1 star 2 stars 3 stars 4 stars 5 stars
comments

What Would Brian Boitano Do Tab

DVDA - What Would Brian Boitano Do?
Submitted By: rap_boy
EMail: jason_wassup@hotmail.com


= - Palm Mute

INTRO:
e---------------------------|---------------------------|
B---------------------------|---------------------------|
G---------------------6---8-|---------------------------|
D---7---7-7---7---7---6---8-|---7---7-7---7---7---4---2-|  X4
A---7---7-7---5---5---4---6-|---7---7-7---5---5---4---2-|
E---5---5-5---5---5---------|---5---5-5---5---5---2---0-|

VERSE:
e---------------------------|---------------------------|
B---------------------------|---------------------------|
G---------------------6---8-|---------------------------|
D---7-----------------6---8-|---7-----------------4---2-|  X2
A---7-----------------4---6-|---7-----------------4---2-|
E---5-----------------------|---5-----------------2---0-|

CHORUS:
e---------------------------|---------------------------|
B---------------------------|---------------------------|
G---------------------6---8-|---------------------------|
D---7---7-7---7---7---6---8-|---7---7-7---7---7---4---2-|  X2
A---7---7-7---5---5---4---6-|---7---7-7---5---5---4---2-|
E---5---5-5---5---5---------|---5---5-5---5---5---2---0-|

VERSE:
e----------------------------------|----------------------------------|
B----------------------------------|----------------------------------|
G------------------6-6-6-6-8-8-8-8-|----------------------------------|
D--7-7-7-7-7-7-7-7-6-6-6-6-8-8-8-8-|--7-7-7-7-7-7-7-7-4-4-4-4-2-2-2-2-|  X2
A--7-7-5-7-7-5-5-5-4-4-4-4-6-6-6-6-|--7-7-5-7-7-5-5-5-4-4-4-4-2-2-2-2-|
E--5-5-5-5-5-5-5-5-----------------|--5-5-5-5-5-5-5-5-2-2-2-2-0-0-0-0-|
   = = = = = = = = = = = = = = = =    = = = = = = = = = = = = = = = =

CHORUS:
e---------------------------|---------------------------|
B---------------------------|---------------------------|
G---------------------6---8-|---------------------------|
D---7---7-7---7---7---6---8-|---7---7-7---7---7---4---2-|  X2
A---7---7-7---5---5---4---6-|---7---7-7---5---5---4---2-|
E---5---5-5---5---5---------|---5---5-5---5---5---2---0-|

VERSE:
e---------------------------|---------------------------|
B---------------------------|---------------------------|
G---------------------6---8-|---------------------------|
D---7-----------------6---8-|---7-----------------4---2-|  X2
A---7-----------------4---6-|---7-----------------4---2-|
E---5-----------------------|---5-----------------2---0-|
[ Tab from: http://www.guitartabs.cc/tabs/d/dvda/what_would_brian_boitano_do_tab.html ]
CHORUS:
e---------------------------|---------------------------|
B---------------------------|---------------------------|
G---------------------6---8-|---------------------------|
D---7---7-7---7---7---6---8-|---7---7-7---7---7---4---2-|  X2
A---7---7-7---5---5---4---6-|---7---7-7---5---5---4---2-|
E---5---5-5---5---5---------|---5---5-5---5---5---2---0-|

VERSE:
e----------------------------------|----------------------------------|                 ...|----------------------------------|
B----------------------------------|----------------------------------|                 ...|----------------------------------|
G------------------6-6-6-6-8-8-8-8-|----------------------------------|      ON SECOND  ...|----------------------------------|
D--7-7-7-7-7-7-7-7-6-6-6-6-8-8-8-8-|--7-7-7-7-7-7-7-7-4-4-4-4-2-2-2-2-|  X2  TIME PLAY: ...|--7-7-5-7-7-5-5-5---4---4---2---2-|
A--7-7-5-7-7-5-5-5-4-4-4-4-6-6-6-6-|--7-7-5-7-7-5-5-5-4-4-4-4-2-2-2-2-|                 ...|--7-7-5-7-7-5-5-5---4---4---2---2-|
E--5-5-5-5-5-5-5-5-----------------|--5-5-5-5-5-5-5-5-2-2-2-2-0-0-0-0-|                 ...|--5-5-5-5-5-5-5-5---2---2---0---0-|
   = = = = = = = = = = = = = = = =    = = = = = = = = = = = = = = = =                         = = = = = = = =

NOT SURE OF THE INTERLUDE, SO IF ANYONE WOULD CARE TO HELP ME OUT.....

CHORUS:
e---------------------------|---------------------------|
B---------------------------|---------------------------|
G---------------------6---8-|---------------------------|
D---7---7-7---7---7---6---8-|---7---7-7---7---7---4---2-|  X2
A---7---7-7---5---5---4---6-|---7---7-7---5---5---4---2-|
E---5---5-5---5---5---------|---5---5-5---5---5---2---0-|

VERSE:
e----------------------------------|----------------------------------|
B----------------------------------|----------------------------------|
G------------------6-6-6-6-8-8-8-8-|----------------------------------|
D--7-7-7-7-7-7-7-7-6-6-6-6-8-8-8-8-|--7-7-7-7-7-7-7-7-4-4-4-4-2-2-2-2-|  X2
A--7-7-5-7-7-5-5-5-4-4-4-4-6-6-6-6-|--7-7-5-7-7-5-5-5-4-4-4-4-2-2-2-2-|
E--5-5-5-5-5-5-5-5-----------------|--5-5-5-5-5-5-5-5-2-2-2-2-0-0-0-0-|
   = = = = = = = = = = = = = = = =    = = = = = = = = = = = = = = = =
CHORUS:
e---------------------------|---------------------------|
B---------------------------|---------------------------|
G---------------------6---8-|---------------------------|
D---7---7-7---7---7---6---8-|---7---7-7---7---7---4---2-|  X2
A---7---7-7---5---5---4---6-|---7---7-7---5---5---4---2-|
E---5---5-5---5---5---------|---5---5-5---5---5---2---0-|

OUTRO:
e---------------------------|
B---------------------------|
G---------------------------|
D---7---7-7---7---7---4---2-|
A---5---5-5---5---5---2---0-|
E---5---5-5---5---5---2---0-|
Comments