Dvda - Timmy And The Lords Of The Underworld Chords & Tabs

 

Timmy And The Lords Of The Underworld Chords & Tabs

Dvda Chords & Tabs

Version: 1 Type: Tab 0 ratings
1 star 2 stars 3 stars 4 stars 5 stars
comments

Timmy And The Lords Of The Underworld Tab

This tab purely for the fun of it, so don't get your human panties lodged firmly up
your human ass, i mean ass... You like this song? I think it sounds kinda like depeche
mode. You know, I don't want to sound like a queer or nothing, but these panties are
kind of comfy lodged way up there.

Verse:
e|----------------------------------|
B|----------------------------------|
G|----------------------------------|
D|----------------------------------|
A|------------------0-0--2p0-2-3-4--|
E|--0-0--2p0-2h3-4----------------0-|
[ Tab from: http://www.guitartabs.cc/tabs/d/dvda/timmy_and_the_lords_of_the_underworld_tab.html ]
Chorus:
e|----------------------------------|
B|----------------------------------|
G|--4--4-44-------------------------|
D|--4--4-44--4--4-44--66-88--66-88--|
A|--2--2-22--4--4-44--66-88--66-88--|
E|-----------2--2-22--44-44--44-44--|

Fills:
e|------|---------|-----------------------|
B|------|---------|-----------------------|
G|------|---------|-----------------------|
D|------|---------|-the first half of the-|
A|------|-2p0 2p0-|-verse could be...-----|
E|--12\-|---------|--0-0--2p0-3-3-4-------|

e|-----------------------|
B|-----------------------|
G|-----------------------|
D|-the first half of the-|
A|-verse could be...-----|
E|--0-0--2p0-3-3-4-------|...i think it is.
Comments