Dvda - Now You Are A Man Chords & Tabs

 

Now You Are A Man Chords & Tabs

Dvda Chords & Tabs

Version: 1 Type: Bass Tab 0 ratings
1 star 2 stars 3 stars 4 stars 5 stars
comments

Now You Are A Man Bass Tab

Intro/verse

------------------------------------------------
------------------------------3-1---------------
--1-3-3-3---1-3-3-3---1-3-3-3-----11111111------
----------3---------3---------------------------

Chorus
[ Tab from: http://www.guitartabs.cc/tabs/d/dvda/now_you_are_a_man_btab.html ]
-----------------------------
-----------------------------
--333---------11111111-------
------33-333-----------------

End of chorus

-----------------------------
-----------------------------
-----------------------------
----4-----6------------------
Comments