Dust To Dust - High Chords & Tabs

 

High Chords & Tabs

Dust To Dust Chords & Tabs

Version: 1 Type: Tab

High Tab

verse
e(-----------------------------------------------------)
b(-------------8-----8-----9---8-------------8-----8---)
g(----7-7h9--7---9-7---9-7---9---8-7-7h9-7-7---9-7---9-)
d(-----------------------------------------------------)
a(--5--------------------------------------------------)
D(-----------------------------------------------------)
[ Tab from: http://www.guitartabs.cc/tabs/d/dust_to_dust/high_tab.html ]
chorus
e(-------------------------------------------------------------------------)
b(-------------------------------------------------------------------------)
g(--------------------------10---------------------------------------------)
d(--5-3-5-3-101010101088888-10-666644443333-5555355553-101010101088888-108-)
a(--5-3-5-3-101010101088888-10-666644443333-5555355553-101010101088888-108-)
D(--5-3-5-3-101010101088888----666644443333-5555355553-101010101088888-108-)

after 1st. chorus
e(-----------------------------------------------)
b(--------------17-17/18/17/15/13-14-12-8-8h9-88-)
g(--14-17-14/12----------------------------------)
d(-----------------------------------------------)
a(-----------------------------------------------)
D(-----------------------------------------------)