Dust To Dust - Breathe Chords & Tabs

 

Breathe Chords & Tabs

Dust To Dust Chords & Tabs

Version: 1 Type: Tab

Breathe Tab

intro/post-chorus
e(----------)(---------------)(----------)
b(----------)(---------------)(----------)
g(----------)(----------9/10-)(----------)
d(--2-3-2-3-)(--2-3-2-3-9/10-)(--x-x-3-2-)
a(--2-3-2-3-)(--2-3-2-3-7/8--)(--x-x-3-2-)
D(--2-3-2-3-)(--2-3-2-3------)(--x-x-3-2-)

verse
e(--------------------------)
b(--------------------------)
g(--6-------6---------------)
d(----5-5-----3-3------3----)
a(--------6-------6-22---22-)
D(--------------------------)

verse(lead)
e(----8-7-----)
b(--6-----7-6-)
g(------------)
d(------------)
a(------------)
D(------------)
[ Tab from: http://www.guitartabs.cc/tabs/d/dust_to_dust/breathe_tab.html ]
pre-chorus
e(-----------------------------------)
b(-----------------------------------)
g(-----------------------------------)
d(--11110000666644441111000066668888-)
a(--11110000666644441111000066668888-)
D(--11110000666644441111000066668888-)
  pm................................

pre-chorus(lead)
e(------8-)
b(--8/6---)
g(--------)
d(--------)
a(--------)
D(--------)

chorus
e(------------------------------------)
b(------------------------------------)
g(------------------------------------)
d(--6-4-6-8-066-6666-6-4-6-8-044-4444-)
a(--6-4-6-8-066-6666-6-4-6-8-044-4444-)
D(--6-4-6-8-066-6666-6-4-6-8-044-4444-)