Duran Duran - What Happens Tomorrow Chords & Tabs

 

What Happens Tomorrow Chords & Tabs

Duran Duran Chords & Tabs

Version: 1 Type: Tab 0 ratings
1 star 2 stars 3 stars 4 stars 5 stars
comments

What Happens Tomorrow Tab

   
WHAT HAPPENS TOMORROW

Tuning: Standard


Here are the chords to the second single off the band's 2004 album, Astronaut. Pretty easy too.
Listen to any live version to get a clear idea how Andy Taylor plays it in real time.
Otherwise, this is easy to strum to on acoustic as well.


Intro and Verses:

"Child, don't you worry..."
    Fm  C#sus/E  B   Esus
e|---------------------------------------------------------------------------------|
B|---------------------------------------------------------------------------------|
G|--------------4-----2------------------------------------------------------------|
D|--4-----4-----4-----2------------------------------------------------------------|
A|--4-----4-----2-----2------------------------------------------------------------|
E|--2-----0-----x-----x------------------------------------------------------------|


(Only play these chords with E as the ending at the end of Verses 1 and 2 before going into the Chorus):

    Fm  C#sus/E  B    E
e|---------------------------------------------------------------------------------|
B|---------------------------------------------------------------------------------|
G|--------------4-----1------------------------------------------------------------|
D|--4-----4-----4-----2------------------------------------------------------------|
A|--4-----4-----2-----2------------------------------------------------------------|
E|--2-----0-----x-----x------------------------------------------------------------|


Chorus:
"But nobody knows...."

    A     F    Dm2   Em7
e|--5-----1-----5-----7----------------------------------------------------------|
B|--5-----1-----6-----8----------------------------------------------------------|
G|--6-----2-----7-----7----------------------------------------------------------|
D|--7-----3-----7-----9----------------------------------------------------------|
A|--7-----3-----5-----7----------------------------------------------------------|
E|--5-----1-----5-----7----------------------------------------------------------|


"We try not to show...."
[ Tab from: http://www.guitartabs.cc/tabs/d/duran_duran/what_happens_tomorrow_tab.html ]
    A     F    Dm2    G
e|--5-----1-----5-----3----------------------------------------------------------|
B|--5-----1-----6-----3----------------------------------------------------------|
G|--6-----2-----7-----4----------------------------------------------------------|
D|--7-----3-----7-----5----------------------------------------------------------|
A|--7-----3-----5-----5----------------------------------------------------------|
E|--5-----1-----5-----3----------------------------------------------------------|

"If you let me...."

    Csus  Dsus  Fsus  A#sus
e|--x-----x-----x-----x-------------------------------------------------------------|
B|--x-----x-----x-----x-------------------------------------------------------------|
G|--5-----7-----10----3-------------------------------------------------------------|
D|--5-----7-----10----3-------------------------------------------------------------|
A|--3-----5-----8-----1-------------------------------------------------------------|
E|--x-----x-----x-----x-------------------------------------------------------------|


"You've Got To Believe...."
     Am              A7                 Em              Em
e|---------0----------------0------------------0----------------0-----|
B|------------1---------------1------------------1-----------------1--|
G|-----2----------------0------------------0----------------0---------|
D|--------------------------------------------------------------------|
A|--0----------------0------------------2----------------2------------|
E|--------------------------------------------------------------------|


Closing Chords:

    Am    A7   Em     G
e|--0-----0-----0-----3----------------------------------------------------------|
B|--1-----1-----0-----3----------------------------------------------------------|
G|--2-----0-----0-----3----------------------------------------------------------|
D|--2-----2-----2-----5----------------------------------------------------------|
A|--x-----x-----2-----5----------------------------------------------------------|
E|--x-----x-----0-----3----------------------------------------------------------|


Not sure on the guitar solo during the later part of the song, though I'm sure it'd be
easy to do a simple rendition of by just listening to the song.
Comments