Duran Duran - Tel Aviv Chords & Tabs

 

Tel Aviv Chords & Tabs

Duran Duran Chords & Tabs

Version: 1 Type: Bass Tab 0 ratings
1 star 2 stars 3 stars 4 stars 5 stars
comments

Tel Aviv Bass Tab

Artist: Duran Duran
Song Title: Tel Aviv	
Album: Duran Duran (1981)
Song Duration: 05:16 min
Tabbed by: Vuk Krajacic (krajac@eunet.yu)


Instructions:

(     ) - Song time elapsed 

h - Hammer on

r - Rest



Main riff (00:54)
                           
G|------------------------------------------------------------|
D|----------3-0-----------------------------------------------|
A|--3-55555--------0-11111-4-0-------------------------0------|
E|-------------------------------0-33-0-333-0-333-0-33---3----|


Stop playing at (01:25)


Main riff (02:12)
                           
G|-------------------------------------------------------------|
D|-----------3-0-----------------------------------------------|
A|--3-55555---------0-11111-4-0-------------------------0------|
E|--------------------------------0-33-0-333-0-333-0-33---3----|



Mid section 1 (02:43)

G|------------------------------------------------------------------------|
D|------------------------------------------------------------------------|
A|--3--------------5-----------------------------------------------4-5----|
E|------------------------------------------------------------------------|


Stop playing at (02:52)


Mid section 2 (03:24)

G|----------------------------------------------------------------|
D|----------------------------------3-----------------------------|
A|--5--5-5--5-5--5--0-3-4-5--5-5--5--5-5--0-3-4-5--5-5--5-5--5----|
E|----------------------------------------------------------------|

G|-----------------------------------------------------------------|
D|-----------------------------------------------------------------|
A|--0-3-4-55--5-5--55--5-5--5--0-3-4-55--5-5--55--5-5--5--0-3-4----|
E|-----------------------------------------------------------------|
[ Tab from: http://www.guitartabs.cc/tabs/d/duran_duran/tel_aviv_btab.html ]
G|---------------------------------------------------|
D|-----------------------------------------3---------|
A|--5-5--535--535--5--0-3--5-5--535--535------3-4----|
E|---------------------------------------------------|

G|------------------------5---6--------------------------|
D|-----------------------------------------------3-------|
A|--5-5--55-5-55-5-5--0h3---4----5-5--55-5-55-5-----3----|
E|-------------------------------------------------------|

G|----------------------------------------------------|
D|----------------------------------------------------|
A|--5-5--55-5-55-5-5-5--0-3--5-5--55-5-55-5-5--0-3----|
E|----------------------------------------------------|

G|--------------------------5---6------------------------------|
D|---------------------------------------------------3---------|
A|--5-5--55-5-55-5-5-5--0h3---4----5-5--55-5-55-5-5-----3-4----|
E|-------------------------------------------------------------|

G|---------------------------------------------------------|
D|--------------------3--------------------------3---------|
A|--5-5--55-5-55-5-5-----3-4---5-5--55-5-55-5-5-----3-4----|
E|---------------------------------------------------------|

G|---------------------------------------------------------|
D|--------------------3--------------------------3---------|
A|--5-5--55-5-55-5-5-----3-4---5-5--55-5-55-5-5-----3-4----|
E|---------------------------------------------------------|

G|--------------------------------------------------|
D|--------------------------------------------------|
A|--5-5--55-5-55-5-5--0-3--5-5--55-5-55-5-5--0-3----|
E|--------------------------------------------------|

G|------------------------------|
D|------------------------------|
A|--5-5--55-5-55-5--0-3-4--5----|
E|------------------------------|


Stop playing at (04:41)


Outro (05:03)

G|--------------------------------------------------------------------|
D|------3------3------3-----------------------------------------------|
A|--5-5---5--5---5--5---3--3-4---5-5-5-5-5-5-5-5-5-5-5-5-5-5-5-5-r----|
E|--------------------------------------------------------------------|


End.


Please send your comments to krajac@eunet.yu
Comments