Duran Duran - Shadows On Your Side Chords & Tabs

 

Shadows On Your Side Chords & Tabs

Duran Duran Chords & Tabs

Version: 1 Type: Bass Tab 0 ratings
1 star 2 stars 3 stars 4 stars 5 stars
comments

Shadows On Your Side Bass Tab

Artist: Duran Duran
Song Title: Shadows On Your Side
Album: Seven And The Ragged Tiger (1983)
Song Duration: 04:00 min
Tabbed by: Mark Harclerode (mharclerode@Joimail.com)

Instructions:

(   ) - Song time elapsed

\ - Slide down

/ - Slide up



Main riff (00:01)

G|------------------------------------------|
D|---------------2--------------2---0-2-0---|
A|-----------0-3---3\5-7-3----2---2-------2-|
E|--10/---------------------3---------------| 
   
G|-------------------------------------|
D|-------------------------------------|
A|---2-5----2-5----\\7-7-5---7-7-5-----|
E|-3-----3------3----------7-------7---| 


Chorus (00:29)

G|-------------------------------------|
D|------------------------3-----3------|
A|---5-5----5-5------------------------|
E|--------------0-2-3--3-----3---------| 

G|---------------------------------------|
D|-------------------8-----7-------------|
A|---6-6----6-6--------------------------|
E|----------------6-----5----------------| 

G|-------------------------------------|
D|------------------------3-----3------|
A|---5-5----5-5------------------------|
E|--------------0-2-3--3-----3---------| 

G|---------------------------------------|
D|---------------------------------------|
A|---6-6----6-6--5-5---5-5--5-5--5-5/----|
E|---------------------------------------| 


Main riff (00:45)

G|---------------------------------|
D|------2--------------2---0-2-0---|
A|--0-3---3\5-7-3----2---2-------2-|
E|-----------------3---------------| 
   
G|-------------------------------------|
D|-------------------------------------|
A|---2-5----2-5----\\7-7-5---7-7-5-----|
E|-3-----3------3----------7-------7---| 


Chorus (01:20)

G|-------------------------------------|
D|------------------------3-----3------|
A|---5-5----5-5------------------------|
E|--------------0-2-3--3-----3---------| 

G|---------------------------------------|
D|-------------------8-----7-------------|
A|---6-6----6-6--------------------------|
E|----------------6-----5----------------| 

G|-------------------------------------|
D|------------------------3-----3------|
A|---5-5----5-5------------------------|
E|--------------0-2-3--3-----3---------| 

G|-------------------5-----5-----------|
D|-------------------------------------|
A|---6-6----6-6--5--5----5-------------|
E|-------------------------------------| 

G|-------------------------------------|
D|------------------------3-----3------|
A|---5-5----5-5------------------------|
E|--------------0-2-3--3-----3---------| 

G|---------------------------------------|
D|-------------------8-----7-------------|
A|---6-6----6-6--------------------------|
E|----------------6-----5----------------| 

G|-------------------------------------|
D|------------------------3-----3------|
A|---5-5----5-5------------------------|
E|--------------0-2-3--3-----3---------| 

G|---------------------5---5----5------|
D|-------------------------------------|
A|---6-6----6-6----5-----5----5----5/--|
E|-------------------------------------| 


Break (01:49)

G|---------------------------------------------------|
D|-----------7---7-----------------------------------|
A|---7----77-------7---7-5-5---5--5-5---5-5---5-5-5--|
E|---------------------------------------------------| 

G|---------------------------------------------------|
D|-----------7---7-----------------------------------|
A|---7----77-------7---7-5-5---5--5-5---5-5---5-5-5--|
E|---------------------------------------------------| 
[ Tab from: http://www.guitartabs.cc/tabs/d/duran_duran/shadows_on_your_side_btab.html ]
G|---------------------------------------------------|
D|-----------7---7-----------------------------------|
A|---7----77-------7---7-5-5---5--5-5---5-5---5-5-5--|
E|---------------------------------------------------| 

G|---------------------------------------------------|
D|-----5-7---7---7-----------------------------------|
A|---7----77-------7---7-5-5---5--5-5---5-5---5-5-5--|
E|---------------------------------------------------| 


Main riff (02:17)

G|---------------------------------|
D|------2--------------2---0-2-0---|
A|--0-3---3\5-7-3----2---2-------2-|
E|-----------------3---------------| 
   
G|-------------------------------------|
D|-------------------------------------|
A|---2-5----2-5----\\7-7-5---7-7-5-----|
E|-3-----3------3----------7-------7---| 


Chorus (02:38)

G|-------------------------------------|
D|------------------------3-----3------|
A|---5-5----5-5------------------------|
E|--------------0-2-3--3-----3---------| 

G|---------------------------------------|
D|-------------------8-----7-------------|
A|---6-6----6-6--------------------------|
E|----------------6-----5----------------| 

G|-------------------------------------|
D|------------------------3-----3------|
A|---5-5----5-5------------------------|
E|--------------0-2-3--3-----3---------| 

G|----------------------------|
D|----------------------------|
A|---6-6----6-6--5-5---5-5----|
E|----------------------------| 

G|-------------------------------------|
D|------------------------3-----3------|
A|---5-5----5-5------------------------|
E|--------------0-2-3--3-----3---------| 

G|---------------------------------------|
D|-------------------8-----7-------------|
A|---6-6----6-6--------------------------|
E|----------------6-----5----------------| 

G|-------------------------------------|
D|------------------------3-----3------|
A|---5-5----5-5------------------------|
E|--------------0-2-3--3-----3---------| 

G|---------------------5---5----5------|
D|-------------------------------------|
A|---6-6----6-6----5-----5----5--------|
E|-------------------------------------| 


Outro (03:07)

G|---------------------------------------------|
D|---------------------------------------------|
A|--3-33--3-33--3-33--3---5-55--5-55--5-55--5/-|
E|---------------------------------------------| 

G|---------------------------------------------|
D|---------------------------------------------|
A|--3-33--3-33--3-33--3---5-55--5-55--5-55--5/-|
E|---------------------------------------------| 

G|-------------------------------------------|
D|-------------1---1-------------------------|
A|--3-33--3-33---3---3--5-55--5-55--5-55--5/-|
E|-------------------------------------------| 

G|-----------------------------------------------|
D|-------------------1---------------------------|
A|--3-33--3-33--3-33---3--5-55--5-55--5-55--5-7/-|
E|-----------------------------------------------| 

G|-------------------------------------------|
D|-------1-----------------------------------|
A|--3-33---3-33-3-3--5-5-55--5-55--5-55--5/--|
E|-------------------------------------------| 

G|----------------------------------------------------|
D|-------1--------------------------------------------|
A|--3-33---3-33-3-3-----------5-5-55--5-55--5-55--5/--|
E|-------------------0-0-2-2--------------------------| 

G|---------------------------------------------|
D|---------------------------------------------|
A|--3-33--3-33--3-33--3---5-55--5-55--5-55--5/-|
E|---------------------------------------------| 


End.
Comments