Duran Duran - Serious Chords & Tabs

 

Serious Chords & Tabs

Duran Duran Chords & Tabs

Version: 1 Type: Bass Tab 0 ratings
1 star 2 stars 3 stars 4 stars 5 stars
comments

Serious Bass Tab

Artist: Duran Duran
Song Title: Serious
Album: Liberty (1990)
Song Duration: 04:20 min
Tabbed by: Vuk Krajacic (krajac@eunet.yu)

Instructions:

(     ) - Song time elapsed 

/ - Slide up



Main riff (00:01)
                           
G|----------------------------------------------------------------------|
D|----------------------------------------------------3-3-3-3-3-3-3-3---|
A|--3-3-3-3-3-3-3-3-3-3-3-3-3-3-3-3--5-5-5-5-5-5-5-5--------------------|
E|----------------------------------------------------------------------| 

G|----------------------------------------------------------------------|
D|----------------------------------------------------3-3-3-3-3-3-3-3---|
A|--3-3-3-3-3-3-3-3-3-3-3-3-3-3-3-3--5-5-5-5-5-5-5-5--------------------|
E|----------------------------------------------------------------------| 

G|------------------------------------|
D|------------------------------------|
A|--3-3-3-3-3-3-3-3-3-3-3-3-3-3-3-3---|
E|------------------------------------| 


Verse (00:20)

G|----------------------------------------------------------------------|
D|----------------------------------------------------3-3-3-3-3-3-3-3---|
A|--3-3-3-3-3-3-3-3-3-3-3-3-3-3-3-3--5-5-5-5-5-5-5-5--------------------|
E|----------------------------------------------------------------------| 

G|----------------------------------------------------------------------|
D|----------------------------------------------------3-3-3-3-3-3-3-3---|
A|--3-3-3-3-3-3-3-3-3-3-3-3-3-3-3-3--5-5-5-5-5-5-5-5--------------------|
E|----------------------------------------------------------------------| 

G|----------------------------------------------------------------------|
D|----------------------------------------------------3-3-3-3-3-3-3-3---|
A|--3-3-3-3-3-3-3-3-3-3-3-3-3-3-3-3--5-5-5-5-5-5-5-5--------------------|
E|----------------------------------------------------------------------| 

G|----------------------------------------------------------------------|
D|----------------------------------------------------3-3-3-3-3-3-3-3/--|
A|--3-3-3-3-3-3-3-3-3-3-3-3-3-3-3-3--5-5-5-5-5-5-5-5--------------------|
E|----------------------------------------------------------------------| 


Stop playing at (00:52)


Riff end (00:55)

G|--------------------------------------------------------------------------------------------------------|
D|-------------------3-3-3-3-3-3-3-3----------------------------------------------------3-3-3-3-3-3-3-3---|
A|--5-5-5-5-5-5-5-5-------------------3-3-3-3-3-3-3-3-3-3-3-3-3-3-3-3--5-5-5-5-5-5-5-5--------------------|
E|--------------------------------------------------------------------------------------------------------| 


Main riff (01:06)

G|----------------------------------------------------------------------|
D|----------------------------------------------------3-3-3-3-3-3-3-3---|
A|--3-3-3-3-3-3-3-3-3-3-3-3-3-3-3-3--5-5-5-5-5-5-5-5--------------------|
E|----------------------------------------------------------------------| 

G|----------------------------------------------------------------------|
D|----------------------------------------------------3-3-3-3-3-3-3-3---|
A|--3-3-3-3-3-3-3-3-3-3-3-3-3-3-3-3--5-5-5-5-5-5-5-5--------------------|
E|----------------------------------------------------------------------| 

G|----------------------------------------------------------------------|
D|----------------------------------------------------3-3-3-3-3-3-3-3---|
A|--3-3-3-3-3-3-3-3-3-3-3-3-3-3-3-3--5-5-5-5-5-5-5-5--------------------|
E|----------------------------------------------------------------------| 

G|----------------------------------------------------------------------|
D|----------------------------------------------------3-3-3-3-3-3-3-3---|
A|--3-3-3-3-3-3-3-3-3-3-3-3-3-3-3-3--5-5-5-5-5-5-5-5--------------------|
E|----------------------------------------------------------------------| 

G|----------------------------------------------------------------------|
D|----------------------------------------------------3-3-3-3-3-3-3-3---|
A|--3-3-3-3-3-3-3-3-3-3-3-3-3-3-3-3--5-5-5-5-5-5-5-5--------------------|
E|----------------------------------------------------------------------| 

G|----------------------------------------------------------------------|
D|----------------------------------------------------3-3-3-3-3-3-3-3/--|
A|--3-3-3-3-3-3-3-3-3-3-3-3-3-3-3-3--5-5-5-5-5-5-5-5--------------------|
E|----------------------------------------------------------------------| 


Stop playing at (01:53)


Riff end (01:56)
[ Tab from: http://www.guitartabs.cc/tabs/d/duran_duran/serious_btab.html ]
G|--------------------------------------------------------------------------------------------------------|
D|-------------------3-3-3-3-3-3-3-3----------------------------------------------------3-3-3-3-3-3-3-3---|
A|--5-5-5-5-5-5-5-5-------------------3-3-3-3-3-3-3-3-3-3-3-3-3-3-3-3--5-5-5-5-5-5-5-5--------------------|
E|--------------------------------------------------------------------------------------------------------| 

G|----------------------------------------------------------------------|
D|----------------------------------------------------3-3-3-3-3-3-3-3---|
A|--3-3-3-3-3-3-3-3-3-3-3-3-3-3-3-3--5-5-5-5-5-5-5-5--------------------|
E|----------------------------------------------------------------------| 

G|----------------------------------------------------------------------|
D|----------------------------------------------------3-3-3-3-3-3-3-3---|
A|--3-3-3-3-3-3-3-3-3-3-3-3-3-3-3-3--5-5-5-5-5-5-5-5--------------------|
E|----------------------------------------------------------------------| 


Stop playing at (02:23)


Mid section (02:30)

G|------------------------------------------------------------------------|
D|------------------------------------------------------------------------|
A|--5/----3-3-3-3-3-3-3-3-3-3-3-3----3------------------------------------|
E|--------------------------------3-3--1-1-1-1-1-1-1-1--3-3-3-3-3-3-3-3---| 

G|-------------------------------------------------|
D|-------------------------------------------------|
A|--3-3-3-3-3-3-3-3-3-3-3-3----3-------------------|
E|--------------------------3-3--1-1-1-1-1-1-1-1---| 


Stop playing at (02:45)


Riff II (02:54)

G|--------------------------------------------------------------------|
D|--------------------------------------------------------------------|
A|--5-5-5-5-5-5-5-5-5-5-5-5-5-5-5-5-5-5-5-5-5-5-5-5-5-5-5-5-5-5-5-5---|
E|--------------------------------------------------------------------| 

G|--------------------------------------------------------------------|
D|--3-3-3-3-3-3-3-3-3-3-3-3-3-3-3-3-3-3-3-3-3-3-3-3-3-3-3-3-3-3-3-3---|
A|--------------------------------------------------------------------|
E|--------------------------------------------------------------------| 


G|---------------------------------------------------------------------|
D|---------------------------------------------------------------------|
A|--5-5-5-5-5-5-5-5-5-5-5-5-5-5-5-5--1-1-1-1-1-1-1-1-1-1-1-1-1-1-1-1---|
E|---------------------------------------------------------------------| 


Outro (03:17)

G|----------------------------------------------------------------------|
D|----------------------------------------------------3-3-3-3-3-3-3-3---|
A|-----------------------------------5-5-5-5-5-5-5-5--------------------|
E|--3-3-3-3-3-3-3-3-3-3-3-3-3-3-3-3-------------------------------------| 

G|----------------------------------------------------------------------|
D|----------------------------------------------------3-3-3-3-3-3-3-3---|
A|-----------------------------------5-5-5-5-5-5-5-5--------------------|
E|--3-3-3-3-3-3-3-3-3-3-3-3-3-3-3-3-------------------------------------| 

G|----------------------------------------------------------------------|
D|----------------------------------------------------3-3-3-3-3-3-3-3---|
A|-----------------------------------5-5-5-5-5-5-5-5--------------------|
E|--3-3-3-3-3-3-3-3-3-3-3-3-3-3-3-3-------------------------------------| 

G|----------------------------------------------------------------------|
D|----------------------------------------------------3-3-3-3-3-3-3-3---|
A|-----------------------------------5-5-5-5-5-5-5-5--------------------|
E|--3-3-3-3-3-3-3-3-3-3-3-3-3-3-3-3-------------------------------------| 

G|----------------------------------------------------------------------|
D|----------------------------------------------------3-3-3-3-3-3-3-3---|
A|-----------------------------------5-5-5-5-5-5-5-5--------------------|
E|--3-3-3-3-3-3-3-3-3-3-3-3-3-3-3-3-------------------------------------| 

G|----------------------------------------------------------------------|
D|----------------------------------------------------3-3-3-3-3-3-3-3---|
A|-----------------------------------5-5-5-5-5-5-5-5--------------------|
E|--3-3-3-3-3-3-3-3-3-3-3-3-3-3-3-3-------------------------------------| 

G|----------------------------------------------------------------------|
D|----------------------------------------------------3-3-3-3-3-3-3-3---|
A|-----------------------------------5-5-5-5-5-5-5-5--------------------|
E|--3-3-3-3-3-3-3-3-3-3-3-3-3-3-3-3-------------------------------------| 



End.




Please send your comments to krajac@eunet.yu
Comments