Duran Duran - Needle And Damage Done Chords & Tabs

 

Needle And Damage Done Chords & Tabs

Duran Duran Chords & Tabs

Version: 1 Type: Tab 0 ratings
1 star 2 stars 3 stars 4 stars 5 stars
comments

Needle And Damage Done Tab

If you're not familliar with this song, it is 
a B-side that is on a few Duran Duran collections. I really
liked how the guitar sounded on this song so I'm attempting to tab
it. Mind you I've only been playing guitar for about 2 or 3 months 
now, so email me if you have any suggestions.

pizzatheface@juno.com

NEEDLE AND THE DAMAGE DONE

Duran Duran

intro: (lyric  ..2,3,4) then play:
 
 E----2---0---------|-----------------|-------0----------|
 B----3---3---3---0-|---3---5---3-----|---3---3---3---3--|
 G------------------|---5---5---5---0-|------------------|
 D--0---0---0---0---|-----------------|------------------|
 A------------------|-3---3---3---3---|-2---2---2---2----|
 E------------------|-----------------|------------------|


 E--------0---------|--0----0---0---0-|---0---0---0---0--|
 B----3---3---3---3-|--1----1---1---1-|---1---1---1---1--|
 G------------------|---------0---2---|-3---2---0--------|
 D------------------|----0h2----------|-------------3----|
 A--1---1---1---1---|-3---------------|------------------|
 E------------------|-----------------|------------------|
[ Tab from: http://www.guitartabs.cc/tabs/d/duran_duran/needle_and_damage_done_tab.html ]
 E----0---0---0---0-|---0---0---0-----|
 B----0---0---0---0-|---0---0---0-----|
 G--2---------------|-1---------------|
 D------2-----------|-----2-----------|
 A----------2-------|---------2---2p0-|
 E--------------0---|-----------------|  End intro. Go right into verse.
 
 Verse: 
 
 E----2---0---------|-----------------|-------0----------|
 B----3---3---3---0-|---3---5---3-----|---3---3---3---3--|
 G------------------|---5---5---5---0-|------------------|
 D--0---0---0---0---|-----------------|------------------|
 A------------------|-3---3---3---3---|-2---2---2---2----|
 E------------------|-----------------|------------------|
      
 E--------0---------|--0---0---0---0--|---1-------1------|
 B----3---3---3---3-|--1---1---1---1--|---1---1---1---1--|
 G------------------|--------0--------|-----2---2---2----|
 D------------------|----2-------2----|-3----------------|
 A--1---1---1---1---|-3---------------|------------------|
 E------------------|-----------------|------------------|

 E----0---0---0---0-|---0----0---0---0--|
 B----0---0---0---0-|---0----0---0---0--|
 G--2---------------|-1-----------------|
 D------2-----------|----------4---2----|
 A----------2-------|-----0h2-----------|
 E--------------0---|-------------------| x2, bridge (same as intro), x2 
 

 End:
 
 E----2---0---------|-----------------|-------0----------|
 B----3---3---3---0-|---3---5---3-----|---3---3---3---3--|
 G------------------|---5---5---5---0-|------------------|
 D--0---0---0---0---|-----------------|------------------|
 A------------------|-3---3---3---3---|-2---2---2---2----|
 E------------------|-----------------|------------------|

       rit.to fade... 
 E-----------0-------|
 B----3---3--3-------|
 G-----------0-------|
 D-----------0-------|
 A--1---1----1-------|
 E-------------------| 

 


[Duran Duran rules! If anyone tabs other songs of theirs, let me know.]
  -Russ Wood
Comments