Duran Duran - Late Bar Chords & Tabs

 

Late Bar Chords & Tabs

Duran Duran Chords & Tabs

Version: 1 Type: Bass Tab 0 ratings
1 star 2 stars 3 stars 4 stars 5 stars
comments

Late Bar Bass Tab

Artist: Duran Duran
Song Title: Late Bar
Album: B-Side to "Planet Earth" single (1981)
Song Duration: 02:59 min
Tabbed by: Vuk Krajacic (krajac@eunet.yu)


Instructions:

(     ) - Song time elapsed 

\ - Slide down

r - rest



Main riff (00:00)
                           
G|-------------------------------9-9----|
D|------------3---------5---------------|
A|--0----33\5-----------------07--------|
E|-------------------3------------------|

G|-------------------------------------|
D|------------3---------5--------------|
A|--0----33\5--------------------------|
E|-------------------3--------0-3-4----|


Main riff end (00:22)

G|------------------------------9-7-5----|
D|------------3---------5----------------|
A|--0----33\5-----------------7----------|
E|-------------------3-------------------|

G|-------------------------------5-7-7----|
D|------------3---------5-----------------|
A|--0----33\5-----------------07----------|
E|-------------------3--------------------|


Chorus (00:30)

G|----------------7---5----------------------------------3-----------5\7----|
D|--------------------------------------------------------------------------|
A|--5---5---5---5---3---------------------0-0--1-1-11-1------3-33-3---------|
E|------------------------3---3---3---3-3-----------------------------------| 

G|----------------7---5----------------------------------3-----------5\7----|
D|--------------------------------------------------------------------------|
A|--5---5---5---5---3---------------------0-0--1-1-11-1------3-33-3---------|
E|------------------------3---3---3---3-3-----------------------------------| 


Main riff (00:52)
                           
G|-------------------------------9-9----|
D|------------3---------5---------------|
A|--0----33\5-----------------07--------|
E|-------------------3------------------|

G|-------------------------------------|
D|------------3---------5--------------|
A|--0----33\5--------------------------|
E|-------------------3--------0-3-4----|
 

Main riff end (01:06)

G|------------------------------9-7-5----|
D|------------3---------5----------------|
A|--0----33\5-----------------7----------|
E|-------------------3-------------------|

G|-------------------------------5-7-7----|
D|------------3---------5-----------------|
A|--0----33\5-----------------07----------|
E|-------------------3--------------------|


Chorus (01:14)

G|----------------7---5----------------------------------3-----------5\7----|
D|--------------------------------------------------------------------------|
A|--5---5---5---5---3---------------------0-0--1-1-11-1------3-33-3---------|
E|------------------------3---3---3---3-3-----------------------------------| 
[ Tab from: http://www.guitartabs.cc/tabs/d/duran_duran/late_bar_btab.html ]
G|----------------7---5----------------------------------3-----------5\7----|
D|--------------------------------------------------------------------------|
A|--5---5---5---5---3---------------------0-0--1-1-11-1------3-33-3---------|
E|------------------------3---3---3---3-3-----------------------------------| 


Mid section (01:36)

G|----------------------------------------------|
D|---------------3-------------------------3----|
A|--0-------------------------0-----------------|
E|----------------------------------------------| 

G|--------------------------------------------------------------------------------|
D|---------------3-------------------------3-\\\\\\\\\\----------------------3----|
A|--0-------------------------0--------------------------0-0-0--0-----------------|
E|--------------------------------------------------------------------------------| 

G|-------------------------------------------------------|
D|--------------------3-----------------------------3----|
A|--0-0-0--0----------------------0-0-0--0---------------|
E|-------------------------------------------------------| 

G|-----------------------------3-0-----------------------------3-0----|
D|--------------------3-\\\\\\------------------------3-\\\\\\--------|
A|--0-0-0--0-------------------------0-0-0----------------------------|
E|--------------------------------------------------------------------|

G|-------------------------3-0-3-5----|
D|----------------3-\\\\\\------------|
A|--0-0-0-----------------------------|
E|------------------------------------|


Main riff 2 (02:14)

G|---------------------------------------|
D|------------3----------5--------5-5----|
A|--0----33\5----------------------------|
E|-------------------1-3------33---------|

G|---------------------------------------|
D|------------3----------5--------5-5----|
A|--0----33\5----------------------------|
E|-------------------1-3------33---------|

G|---------------------------------------|
D|------------3----------5--------5-5----|
A|--0----33\5----------------------------|
E|-------------------1-3------33---------|

G|---------------------------------------------|
D|------------3----------5--------5-5----------|
A|--0----33\5---------------------------0-r----|
E|-------------------1-3------33---------------|


Chorus (02:30)

G|----------------7---5----------------------------------3-----------5\7----|
D|--------------------------------------------------------------------------|
A|--5---5---5---5---3---------------------0-0--1-1-11-1------3-33-3---------|
E|------------------------3---3---3---3-3-----------------------------------| 

G|-----------------------------------------------------------------------------------|
D|-----------------0-3-0----------------5---3-----------1-2-3-----------3-4-5--------|
A|--5---5---5---5------------------------------1-1-11-1--------3-3-33-3---------5----|
E|------------------------3---3---3---3---1------------------------------------------| 



End.




Please send your comments to krajac@eunet.yu
Comments