Duran Duran - Hungry Like The Wolf Chords & Tabs

 

Hungry Like The Wolf Chords & Tabs

Duran Duran Chords & Tabs

Version: 1 Type: Tab 0 ratings
1 star 2 stars 3 stars 4 stars 5 stars
comments

Hungry Like The Wolf Tab

   
Duran Duran - Hungry Like the Wolf

Tuning: E A D G B E (Standard)

p: pull-off
\: slide down

Chords used:  C: x32010     G: 320033     F: 133211     D: xx0232

Intro/Main Riff/Verse:
e|-----------|---0--0-------------------|
B|-----------|---0--0-------------------|
G|-----------|o---------2-1---2p1------o|
D|-----------|o-------------2------2---o|
A|-----------|--------------------------|
E|-12\--(0)--|--------------------------|

Repeat main riff 4 times at first, and 2 times
thereafter per verse (without the opening slide), and
then go to an open D chord.

[ Tab from: http://www.guitartabs.cc/tabs/d/duran_duran/hungry_like_the_wolf_tab.html ]
"Do-do-do-do-do..."          
e|---2-----------0--0--------------------|
B|---3-----------0--0--------------------|
G|---2------------------2-1---2p1--------|
D|---0----------------------2------2-----|
A|---------------------------------------|
E|---------------------------------------|

Chorus:

 C               G
In touch with...  

 F
I'm on a hunt...

 C               G
Smell like I...

 F                  D
And I'm hungry like...

 C                   G
Straddle the line...  

 F
I'm on a hunt...

 C                G
Mouth is alive...

Repeat...

Any questions or comments feel free to email me at deathshadow519@hotmail.com
Comments