Duran Duran - All She Wants Is Chords & Tabs

 

All She Wants Is Chords & Tabs

Duran Duran Chords & Tabs

Version: 1 Type: Bass Tab 0 ratings
1 star 2 stars 3 stars 4 stars 5 stars
comments

All She Wants Is Bass Tab

   
Tuning: Drop D (low to high) D A D G
This bass also has effects on it. Sounds like a fuzz box/distortion pedal, and a
synthesizer pedal. Listen to get the rhythm.

p= short pause

(Come in at about 00:32)
Intro:

G|---------------------------------------------------|
D|--------------------------3----7-------7---7-----10|
A|---5--------5-----5--------------------------------|
D|-0---0-p-0------0---0--3----7----7-p-7---7---7--10-| x2

Verse:

G|--------------------------------------------------------|
D|----------------------------------7-------7---7------7--|
A|---5--------5-----5--------5----------------------------|
D|-0----0-p-0-----0---0-p-0-------7---7-p-7---7---7-p-7---|

[ Tab from: http://www.guitartabs.cc/tabs/d/duran_duran/all_she_wants_is_btab.html ]
G|-------------------------------------------------------------|
D|----------------------------------7-------7---7----10--------|
A|---5-------5----5--------5-----------------------------------|
D|-0---0-p-0----0---0-p-0--------7---p-7--7---7---10-----------|


G|---------------------------------------------------|
D|--------------------------3----7-------7---7-----10|
A|---5-------5---5-----------------------------------|
D|-0---0-p-0---0---0------3----7---7-p-7---7---7-10--| x2

Chorus #1:

G|--------------|
D|--------------|
A|---5----------|
D|-0---0---break|

REPEAT INTRO/VERSE

Chorus #2/Bridge:

G|---------------------------|
D|---------------------------|
A|---5-------5---5-----3-----|
D|-0---0-p-0---0---0-p-------| (repeat as many times necessary)
-BREAK-
Then repeat intro/verse until end of song.                             
Toward the end of the song the effects are real strong so its kind of hard to hear.
Let me know if there is anything wrong with it...send me an email @ DarkSpellDragon at
aol.com. thanks! Have fun and please rate!
Comments