Dumdum Boys - Enhjrning Chords & Tabs

 

Enhjrning Chords & Tabs

Dumdum Boys Chords & Tabs

Version: 1 Type: Tab

Enhjrning Tab

Artist:Dum Dum Boys
Sang:Enhjørning
Album:Gravitasjon

Jeg er bare 13 år og dette er min første tab, så ta det litt rolig på meg.;)
                                          
Intro og Ref:
                                                      
e------------------------------------------------------------]
B------------------------------------------------------------]
G--7--7--6--6------------------------------------------------]
D--7--7--6--6---2---4--4--4--4-------------------------------]
A--5--5--4--4---2---4--4--4--4-------------------------------]
E---------------0---2--2--2--2-------------------------------]

I slutten av refrenget kommer dette:

e------------------------------------------------------------]
B------------------------------------------------------------]
G--7--7--6--6------------------------------------------------]
D--7--7--6--6--2--4--4--4---2--------------------------------]
A--5--5--4--4--2--4--4--4---2--------------------------------]
E--------------0--2--2--2---0--------------------------------]
[ Tab from: http://www.guitartabs.cc/tabs/d/dumdum_boys/enhjrning_tab.html ]
e------------------------------------------------------------]
B------------------------------------------------------------]
G--4--4------------------------------------------------------]
D--4--4--2--2---4--------------------------------------------]
A--2--2--2--2---4--------------------------------------------]
E--------0--0---2--------------------------------------------]

Vers:
e------------------------------------------------------------]
B------------------------------------------------------------]
G--4---6-----------------------------------------------------]
D--4---6----4------------------------------------------------]
A--2---4----4------------------------------------------------]
E-----------2------------------------------------------------]

To ganger i verset komme dette riffe, som er nesten helt likt som det andre.
e------------------------------------------------------------]
B------------------------------------------------------------]
G--4---6-----------------------------------------------------]
D--4---6---7-------------------------------------------------]
A--2---4---7-------------------------------------------------]
E----------5-------------------------------------------------]

Lykke til!