Dumbfounded - Misunderstood Chords & Tabs

 

Misunderstood Chords & Tabs

Dumbfounded Chords & Tabs

Version: 1 Type: Tab 0 ratings
1 star 2 stars 3 stars 4 stars 5 stars
comments

Misunderstood Tab

Sup everyone this is the official tab to Misunderstood by Đumbfounded,
very cool band. ^^


Intro                                
e------------------|------------------|----------
b------------------|------------------|--×18-×9-×9
g-5~----55555555---|------------------|-9---5---7-
d-5~----55555555---|----------------×4|-9---5---7-
a-3~----33333333---|-33-00-11-22-11---|-7---3---5-
E------------------|------------------|-----------

Verse
e------------|
b--×18-×9-×9-|
g-9---5---7--|
d-9---5---7--|
a-7---3---5--|
E------------|
(do a pickslide into the chorus)
[ Tab from: http://www.guitartabs.cc/tabs/d/dumbfounded/misunderstood_tab.html ]
Chorus
e---------------------|---------------------|
b----------×8--×6-----|----------×8---------| 
g--×8--×8-5---7---55--|--×8--×8-5---7-------|  x2
d-5---7---5---7---55--|-5---7---5---7-------|
a-5---7---3---5---33--|-5---7---3---5-------|
E-3---5---------------|-3---5---------------|

Solo (first time palm muted then lift)
e------------------------------------------|
b------------------------------------------|
g------------------------------------------|  x4
d----9-10-9-7--------------7-8-7-5---------|
a-777-7--7-7-7h9h10p9p7-555-5-5-5-5h7h8p7p5|
E------------------------------------------|

thats it, have fun!

-Jon

ż
Comments