Dum Dums - I Cant Get You Out Of My Thoughts Chords & Tabs

 

I Cant Get You Out Of My Thoughts Chords & Tabs

Dum Dums Chords & Tabs

Version: 2 Type: Bass Tab 0 ratings
1 star 2 stars 3 stars 4 stars 5 stars
comments

I Cant Get You Out Of My Thoughts Bass Tab

DUMDUMS - I can't get you out of my thoughts

tabbed by Richard Martin (sir_sich@hotmail.com) and his mate phil
(buffer187@hotmail.com)

Got this figured out tonight, there is definitely something wrong with
the bridges, but they sound ok.

What a song!!


Verse & chorus (slow it down for the verse)

G ----------------------------------
D ----4-4-6-6-4-6-4-2-2-1-1---------
A 2-2-----------------------4-----1-
E ----------------------------2-4---
[ Tab from: http://www.guitartabs.cc/tabs/d/dum_dums/i_cant_get_you_out_of_my_thoughts_btab_ver_2.html ]
Bridge 1 ("It aches in my heart...")

G --------------
D ------------4-
A 2-2-1-1---4---
E --------4-----

Bridge 2 ("Aaaaahhh...")

G --------------------
D ------------------4-
A 4-1-2-1---4-1-2-1---
E --------4-----------

Bridge 3 ("Back to you...")

G -----------------
D -----------------
A 6-4-2-7-6--7-6---
E ---------7-----6-

You need to listen to the track for the timing, but the notes are
pretty much there, along with some room for improvisation
Comments