Duke Spirit - Love Is An Unfamiliar Name Chords & Tabs

 

Love Is An Unfamiliar Name Chords & Tabs

Duke Spirit Chords & Tabs

Version: 1 Type: Tab 0 ratings
1 star 2 stars 3 stars 4 stars 5 stars
comments

Love Is An Unfamiliar Name Tab

love is an unfamiliar name
Artist: The Duke Spirit
A new British band, who's debut album was released 16/05/05
Album:  Cuts across the Land
tabbed by: Jason Hilton, try.not.to.think@gmail.com 23/05/05
below is all my own work blah, blah, etc etc

Ok, this a great new song, goes some thing like this

intro
E-----------------------------7--7-------------------------------|
B---0--0----0--0-----0--0-----7--7-------------------------------|
G---4--4----6--6-----7--7----------------------------------------|
D----------------------------------------------------------------|
A----------------------------------------------------------------|
E----------------------------------------------------------------|
    x8
[ Tab from: http://www.guitartabs.cc/tabs/d/duke_spirit/love_is_an_unfamiliar_name_tab.html ]
bridge
E-----------------------------------------------------------------|
B-----------------------------------------------------------------|
G--4---4-4--4-4-4---4---4-4---4-4-4-------------------------------|
D-----------------------------------------------------------------|
A--2---2-2--2-2-2---2---2-2---2-2-2-------------------------------|
E-----------------------------------------------------------------|
     x2

chorus
E----------------------------------------------------------------|
B----------------------------------------------------------------|
G--4--4-4--4-4-4--7--4-4--4-4-4--14--14-14--14-14-14--16--16-16--|
D----------------------------------------------------------------|
A--2--2-2--2-2-2--5--2-2--2-2-2--12--12-12--12-12-12--14--14-14--|
E----------------------------------------------------------------|

E---------------|
B---------------|
G--16-16-16-----|  x4
D---------------|
A--14-14-14-----|
E---------------|

The chorus ends with

E----------------------------------------------------------------|
B----------------------------------------------------------------|
G--16b-18-18--18-18-18r-16--16-16--16-16-16----------------------|
D----------------------------------------------------------------|
A--14b-16-18--16-16-16r-14--14-14--14-14-14----------------------|
E----------------------------------------------------------------|
                  x2

THe rest is just various repeats of the above.


This is more or less right i think
Comments