Duff Mckagan - 10 Years Chords & Tabs

 

10 Years Chords & Tabs

Duff Mckagan Chords & Tabs

Version: 1 Type: Bass Tab 0 ratings
1 star 2 stars 3 stars 4 stars 5 stars
comments

10 Years Bass Tab

DUFF MCKAGAN IS THE BASSIST THE PLAYED IN GUNS N ROSES, LOADED, SLASH'S SNAKEPIT AND NOW
VELVET REVOLVER. HE CAN PLAY GUITAR AND DRUMS, AS WELL AS SING. THIS IS FROM HIS DEBUT
ALBUM " BELEIVE IN ME''

-----------------------------------------------------------------------------

Duff McKagan
10 Years
Tuning E flat


	"Celebrate, yeah yeah..."
G--------------------------------------------------------------------|
D--------------------------------------------------------------------|
A---------------2-2-2-2-2-2--0---------------------------------------|
E--3-3--0-0----------------------------------------------------------|
	(repeat 2x)

G--------------------------------------------------------------------|
D--------------------------------------------------------------------|
A---------------2-2-2-2-2-2--0---------------------------------------|
E--3-3--0-0----------------------------------------------------------|
	"It's been a long time..."(repeat 4x)


 Chorus
G--------------------------------------------------------------------|
D--3--0--------------------------------------------------------------|
A----------3--2--1-------3-------------------------------------------|
E--------------------1--3--------------------------------------------|
	"Ten years didn't seem so long..."

[ Tab from: http://www.guitartabs.cc/tabs/d/duff_mckagan/10_years_btab.html ]
G--------------------------------------------------------------------|
D--------------------------------------------------------------------|
A---------------2-2-2-2-2-2--0---------------------------------------|
E--3-3--0-0----------------------------------------------------------|
	"Many days and nights have passed..."(repeat 4x)


 Chorus
G--------------------------------------------------------------------|
D--3--0--------------------------------------------------------------|
A----------3--2--1--------3------------------------------------------|
E--------------------1--3--------------------------------------------|
	"It's been ten years..."	(repeat 2x)


G--------------------------------------------------------------------|
D--------------------------------------------------------------------|
A--2--0----------2--0---------------------------3(8x)--0(8x)---------|
E----------3--2----------3--2--0(8x)--3(8x)--------------------------|
            (Start 3rd pass)


G--------------------------------------------------------------------|
D--------------------------------------------------------------------|
A---------------2-2-2-2-2-2--0---------------------------------------|
E--3-3--0-0----------------------------------------------------------|
	"I think about the past..."(repeat 4x)


 Chorus
G--------------------------------------------------------------------|
D--3--0----------------------3--0------------------------------------|
A----------3--2--1--------3---------3--2--1----------3---------------|
E--------------------1--3-----------------------1--3-----------------|
	"It's been ten years..."(repeat 2x)
Comments