Due South - Cabin Music Chords & Tabs

 

Cabin Music Chords & Tabs

Due South Chords & Tabs

Version: 1 Type: Tab 1 rating
1 star 2 stars 3 stars 4 stars 5 stars
comments

Cabin Music Tab

   
All Tabs Done By Me - No Official Tabs Looked At - Any Thoughts, Queries Or Even Ideas On How To Improve These Tabs (if u have the official ones they would be appreciated!) Contact Me (Simon) At delongeblink@aol.com
They're Not All Complete But They're Damn Good!
Due South Tunes - Mixed!!

CABIN MUSIC - Original Score The Best Due South Related Tune Ever
Start x2
e|---------0------------0------x-----------------
B|-------3---3--------3---3----1-----------------
G|-----------------------------0-----------------
D|-----------------------------2->>>-------------
A|---2-------------2-----------3-----------------
E|-0-------------3-------------0-----------------

Next x2				 C - (strum few times)   
e|--------0-------------0------x-----------------
B|--------------------3---3----1-----------------
G|------0---3------------------0-----------------
D|-----------------------------2-----------------
A|---2-----------2-------------3-----------------
E|-0-----------3---------------0-----------------

Then Bass Kicks In With This - x4
				       C -(strum few times) CONTINUE...
e|---------0------------0------x-----------------
B|-------3---3--------3---3----1-----------------
G|-----------------------------0-----------------
D|-----------------------------2-----------------
A|---2-------------2-----------3-----------------
E|-0-------------3-------------0-----------------

This x2
     C - STRUM   D - STRUM          C              C               
e|---x-----------2------------0-----x---------0----x---
B|---1-----------3----------3---3---1-------3---3--1---
G|---0-----------2------------------0---2-2--------0---
D|---2-----------0------------------2---0----------2---
A|---3-----------x------------------3--------------3---
E|---0-----------x------------------0--------------0---

This - x
e|------------------------
B|--3-----3-----3---------
G|--0>>---0>>---0>>-------
D|--2-----2-----2---------
A|------------------------
E|------------------------

Lead Distortion Comes In Strumming In Background On Acoustic
Lead Riff - 
e|-----------------------------------------------
B|---3-p-5--2/3/2-------3-p-5-/7-5p7p5-----------
G|-----------------2/4---------------------------
D|-----------------------------------------------
A|-----------------------------------------------
E|-----------------------------------------------
e|----------------------/12 10-9/7-77------------
B|---3p5-2/3/2-----------------------------------
G|-------------2/4/2>>---------------------------
D|-----------------------------------------------
A|-----------------------------------------------
E|-----------------------------------------------

Acoustic Comes Back To Main Riff
Next x1			       C - (strum few times)   
e|--------0-------------0------x-----------------
B|--------------------3---3----1-----------------
G|------0---3------------------0-----------------
D|-----------------------------2-----------------
A|---2-----------2-------------3-----------------
E|-0-----------3---------------0-----------------
[ Tab from: http://www.guitartabs.cc/tabs/d/due_south/cabin_music_tab.html ]
Next x1				   
e|----------x-----------------0-----0-----0-----0-0-0---
B|-----33-3-1--------33-------3-----3-----3-----3>3>3>--
G|----0-----0>>>---0----0-----0>>>>-0>>>>-0>>>>-0-0-0---
D|----------2-----------0>>>--2-----2-----2-----2-2-2---
A|---2------3-----------3-----3-----3-----3-------------
E|-0--------0-------------------------------------------

Misc. Due South Theme Tune - 
This x1 - DOOMAAAH AHH
e|------------------------------------------------------
B|------------------------------------------------------
G|------------------------------------------------------
D|---------------0>>---------0-0--------------0-0-------
A|---0p2---0p2-2--------0p2-2----2-------0p2-2---20-----
E|-00----00-----------00-----------2b0-00-----------2b--

This x1
e|------------------------------------------------------
B|------------------------------------------------------
G|---------0-0--------------0-0-------------------------
D|----0p2-2----2-------0p2-2---20-----------------------
A|--00-----------2b0-00-----------2b--------------------
E|------------------------------------------------------

This x1
e|------------------------------------------------------
B|------------------------------------------------------
G|------------------------------------------------------
D|---------0-0--------------0-0-------------------------
A|----0p2-2----2-------0p2-2---20-----------------------
E|--00-----------2b0-00-----------2b--------------------

This x1
e|------------------------------------------------------
B|------------------------------------------------------
G|---------0-0--------------0-0-------------------------
D|----0p2-2----2-------0p2-2---20-----------------------
A|--00-----------2b0-00-----------2b--------------------
E|------------------------------------------------------


e|------x1--------------
B|----------------------
G|----------------------
D|---------------0>>----
A|---0p2---0p2-2--------
E|-00----00-------------

Extra Incidental Tune - Works On Any String - This One Sounds The Best Though
e|------------------------------------
B|------------------------------------
G|------------------------------------
D|------------------------------------
A|--0-0-3-0--567--0-0-3---------------
E|----------------------3b-345--------

Main Due South Theme Tune - Jay Semko
e|----------------------------------------
B|----------------------------------------
G|-6/7/6/7--9-9-9-11p9/7/11--9--7-6/2>>---
D|----------------------------------------
A|----------------------------------------
E|----------------------------------------

e|----------------------------------------
B|----0--0-0---0--0---0-------------------
G|--4---4-4--4---4--4---------------------
D|----------------------------------------
A|----------------------------------------
E|----------------------------------------

e|----------------------------------------
B|----------------------------------------
G|----------------------------------------
D|----------------------------------------
A|----------------------------------------
E|----------------------------------------

Ride Forever - Paul Gross
e|----------------------------------------
B|----------------------------------------
G|----------------------------------------
D|----------------------------------------
A|----------------------------------------
E|----------------------------------------

Western End Of The Trail - Original Score
e|----------------------------------------
B|----------------------------------------
G|----------------------------------------
D|----------------------------------------
A|----------------------------------------
E|----------------------------------------
Comments