Dudu Tassa - Germany Chords & Tabs

 

Germany Chords & Tabs

Dudu Tassa Chords & Tabs

Version: 1 Type: Chords 0 ratings
1 star 2 stars 3 stars 4 stars 5 stars
comments

Germany Chords

Shalom!
I know that 99% of the people who will look for those tabs and chords will be
probably Israelis but the site wouldn't allow me to write in Hebrew on this
page so the whole explanation is going to be in English.

I am not 100% sure about the tabs but I do think that 75% of them are correct
so please if you do want to help, try to fix me where I'm wrong or support
and say in which parts I am right. Please be sure to send me an email if you
find any mistakes in the tabs and chords below!

**My email : dorBrex@gmail.com

**Timing would be sync with my guitar cover time ( in the video )
so be sure to check out my guitar cover at

http://www.youtube.com/watch?v=KMJ1-kR-OMs

GOOD LUCK AND ENJOY THE LESSON

BAIT - VERSE 
TiMING : 00:01 - 01:00, 01:54 - 02:44, 03:40 - 04:25
 
CHORDS IN THE ORDER YOU SHOULD PLAY IT: F major, G major, E minor, D minor,
C major. (I would offer you to palm mute the strings while playing it)

PIZMON - CHORUS
TIMING: 01:04 - 01:54, 02:54 - 03:40
[ Tab from: http://www.guitartabs.cc/tabs/d/dudu_tassa/germany_crd.html ]
EXAMPLE IN THE COVER - 1:04-1:07
e|---------------------------------------------------------------|
B|---------------------------------------------------------------|
G|-----------5--7--5-------------5--7--5-------------------------|
D|--7----7------------7--6----6-----------6----------------------|
A|---------------------------------------------------------------|
E|---------------------------------------------------------------|
EXAMPLE IN THE COVER - 1:07-1:10
e|---------------------------------------------------------------|
B|---------------------------------------------------------------|
G|-----------5--7--5-------------5--7--5-------------------------|
D|--3----3------------3--3----3-----------3----------------------|
A|---------------------------------------------------------------|
E|---------------------------------------------------------------|

Cello SOLO 03:40 - 04:24

e|---------------------------------------------------------------|
B|-13----13----13----13----12----12----12----12------------------|
G|----14----14----14----14----10----10----10----10---------------|
D|---------------------------------------------------------------|
A|---------------------------------------------------------------|
E|---------------------------------------------------------------|

e|---------------------------------------------------------------|
B|-15----15----15----15----13----13----13----13------------------|
G|----14----14----14----14----11----11----11----11---------------|
D|---------------------------------------------------------------|
A|---------------------------------------------------------------|
E|---------------------------------------------------------------|

VIOLIN SOLO 04:00 - 04:25
**PLEASE ADD A BIT OF "VIBRATE" -
MAKE THE NOTE SHAKE A BIT,IN ORDER TO GIVE IT MORE EMOTION WHILE PLAYING IT.

e|---------------------------------------------------------------|
B|--3----3-5-6-3----5----5-6-8--/--10-8-6----3-5-6----3-5-6-6----|
G|---------------------------------------------------------------|
D|---------------------------------------------------------------|
A|---------------------------------------------------------------|
E|---------------------------------------------------------------|

e|---------------------------------------------------------------|
B|--10--10--8--8~~~~~--------------------------------------------|
G|---------------------------------------------------------------|
D|---------------------------------------------------------------|
A|---------------------------------------------------------------|
E|---------------------------------------------------------------|


HOPE YOU ENJOYED IT, GOOD LUCK.

dorBrex96

dorBrex@gmail.com
Comments