Dudes Of Wrath - Shocker Chords & Tabs

 

Shocker Chords & Tabs

Dudes Of Wrath Chords & Tabs

Version: 1 Type: Tab 0 ratings
1 star 2 stars 3 stars 4 stars 5 stars
comments

Shocker Tab

The Dudes of Wrath
------------
Shocker


 ~  - let ring
p.m - palm muted
/   - slide down
\   - slide up
 b  - bend
 r  - release

Tabbed by Thomas Kreutzer
email: snake359@lycos.de


standard tuning

intro (till 0:16)
E---||---------------0-0--------------------------0-0-------------------|
B---||---0-0-1-1-0-0-----0-0-1-1-0----0-0-1-1-0-0-----0-0-1-1-3-3-------|
G---||------------------------------------------------------------------|
D---||-2----------------------------2-----------------------------------|
A---||------------------------------------------------------------------|
E---||------------------------------------------------------------------|


followed by the main riff
E---||------------------------------------------------------------------|
B---||------------------------------------------------------------------|
G---||------------------------------------------------------------------|
D---||------------------------------------------------------------------|
A---||--0-0-3-0-2-0------2-3---2-3---0-0-2-3-0-2-3---2-3---3-2----------|
E---||--------------3-1------3---------------------3-----1--------------|


see the shadows of a stranger (0:30)...
E---||------------------------------------------------------------------|
B---||------------------------------------------------------------------|
G---||------------------------------------------------------------------|
D---||------------------------------------------------------------------|
A---||--0-0-3-0-2-0------2-3---2-3---0-0-2-3-0-2-3---2-3---3-2----------|
E---||--------------3-1------3---------------------3-----1--------------|
        p.m...................................................


this is mans creation(0:52)   SHOCKER! SHOCKER....
E---||------------------------------------------------------------------|
B---||------------------------------------------------------------------|
G---||------------------------------------------------------------------|
D---||----------------------------------0-----2-0------10-9-12----------|
A---||--7-7-9-9-10-10-12-12---0-3-0-2-3---0-3-----3-2--8--7-10----------|
E---||--5-5-7-7-8--8--10-10---------------------------------------------|
                                                       p.m....

[ Tab from: http://www.guitartabs.cc/tabs/d/dudes_of_wrath/shocker_tab.html ]
followed by the main riff again (1:11)
E---||--------------------------------------------------------------------|
B---||--------------------------------------------------------------------|
G---||--------------------------------------------------------------------|
D---||--------------------------------------------------------------------|
A---||--0-0-3-0-2-0------2-3---2-3---0-0-2-3-0-2-3---2-3---3-2------------|
E---||--------------3-1------3---------------------3-----1----------------|


the same scheme till the solo and afterwards the reprise

we will have the power (2:44)...
E---||-------------------------------------------------------------------|
B---||-------------------------------------------------------------------|
G---||-------------------------------------------------------------------|
D---||--10-10-10-7-7-7-3-3-3-5-5-5---------------------------------------|
A---||--8--8--8--5-5-5-1-1-1-3-3-3---------------------------------------|
E---||-------------------------------------------------------------------|
        p.m.     p.m.  p.m.  p.m.


Lyrics:

see the shadow of a stranger
surn around and youre life's in danger
this crazy world's in a grave situation
check the children, are the sleepin'
will they wake from the sirens screamin'
ahhhhh...

Shocker! Shocker!
We're like lambs to the slaughter
Shocker! Shocker!
We're in the fire and it just gets hotter

See the light, it's the city burnin'
the homeless shudder cause the leaves are turnin'
the winter's comin' with it's cold compassion
a killer's loose and the dead stand trial
cause god's the only witness on file
man's inhumanity to man's fashion
ahhhhh...

Shocker! Shocker!
We're like lambs to the slaughter
Shocker! Shocker!
We're in the fire and it just gets hotter

We will have the power
we will have the glory
in our shining hour
we will write our own story

we will have our own world
we will have it our way
standing like a tower
the sun will shine on our own day

hints:

the main riff (not palm muted) and the part while singing "shocker! shocker!" sounds 
with hammer on's and pull off's too....
The song is build up on two guitars...but i thing with this tab you can figure out the 
important things and fill the rest with a little bit of improvisation.


I'm always interessted in corrections or hints to play this track a better way... and by 
way: the solo is still untabbed... so ... come on all you solo-wizards :-)!


!!!Greets from Berlin!!!
Comments