Dubliners - Molly Malone Chords & Tabs

 

Molly Malone Chords & Tabs

Dubliners Chords & Tabs

Version: 1 Type: Tab 0 ratings
1 star 2 stars 3 stars 4 stars 5 stars
comments

Molly Malone Tab

Here it it.  The only part that doesn't sound exactly right is the 3-0-0 you'll
know what I mean when you read it. Let me know if you get it to sound better.
The tabs below are converted directly from sheet music.

E|---|-------|-------|-------|-------|-------|-------|-------|-------|
B|---|-------|---0---|-------|---1---|-0-----|-3-1-0-|-0-----|-------|
G|---|-0-0-0-|-0--0-0|-2-2-2-|-2---2-|---2-0-|-------|---2-2-|-2-----|
D|-0-|-------|-------|-------|-------|-------|-------|-------|---0-0-|
A|---|-------|-------|-------|-------|-------|-------|-------|-------|
E|---|-------|-------|-------|-------|-------|-------|-------|-------|
[ Tab from: http://www.guitartabs.cc/tabs/d/dubliners/molly_malone_tab.html ]
E|-------|---------|-------|---------|-------|-------|-------|-----|---------|
B|-------|---0-----|-------|---1-0---|-3-0---|-3-0---|-------|-----|---------|
G|-0-0-0-|-0---0-0-|-2-2-2-|-2-----2-|-----0-|-----0-|-2-0-2-|-0---|-0-0-0-0-|
D|-------|---------|-------|---------|-------|-------|-------|---0-|---------|
A|-------|---------|-------|---------|-------|-------|-------|-----|---------|
E|-------|---------|-------|---------|-------|-------|-------|-----|---------|

E|-------|---------|---------|-------|-------|-------|---|
B|---0---|---------|---1-----|-3-0---|-3-0---|-------|---|
G|-0---0-|-2-2-2-2-|-2---0---|-----0-|-----0-|-2-0-2-|-0-|
D|-------|---------|-------2-|-------|-------|-------|---|
A|-------|---------|---------|-------|-------|-------|---|
E|-------|---------|---------|-------|-------|-------|---|

Thats all.  More to come Soon (I hope)
Comments