Dsound - Tattooed On My Mind Chords & Tabs

 

Tattooed On My Mind Chords & Tabs

Dsound Chords & Tabs

Version: 3 Type: Tab 0 ratings
1 star 2 stars 3 stars 4 stars 5 stars
comments

Tattooed On My Mind Tab

TATTOED ON MY MIND
     dsound
tabs by:raf_fermin

(this is my acoustic version of tattoed... im pretty sure its the same, u just have to
play the strings. i cant give the exact tabs but this may be ur guide)


Verse:

--x-----0---------0-------0----------0-|
--x---4----------------4---4---------0-|
--x--4-4-------2------4-4---4----2-----|(like i said play w/ the strings)
--x-----------2-2----------------2-2---| <----(4x)
--4------------------------------------|
----------0-2------0s4---------2-------|


chorus: (strum this part)

---------------------------------------0----|
---------------------------------------0----|
--2-------------4-------------------2-------| <---(4x) same timing same
--2-------------4-------------------2-------|          and strumming
--------------------------------------------|
----------------4-------------------2-------|
coz i cant...   get u out of my     dreams...


verse2: (same as the 1st verse)

--x-----0---------0-------0----------0-|
--x---4----------------4---4---------0-|
--x--4-4-------2------4-4---4----2-----|(like i said play w/ the strings)
--x-----------2-2----------------2-2---| <----(4x till chorus)
--4------------------------------------|
----------0-2------0s4---------2-------|

bridge: (strum this part again/repear chorus)

--4------------------------------|       -------------------------------------|
--5------------------------------|       -------------------------------------|
--4---------------- -------2-----| (4x)  --2------------4------2---------4----|
--6------------------------2-----|       --2------------4------2---------4----|
--4------------------------------|       --------------------------------2----|
--4------------------------2-----|       --2------------4---------------------|
yesterday i was feeling  safe        & i curse u for being so sweet & so kind
[ Tab from: http://www.guitartabs.cc/tabs/d/dsound/tattooed_on_my_mind_tab_ver_3.html ]
------4-----------------------------|
------5-----------------------------|
------4-----------------------2-----|
------6-----------------------2-----|(4X)
------4-----------------------------|
------4-----------------------2-----|
yes i know ur tattoed on my mind ur tattoed


outro: (just do like the chorus and intro)

----------------|
----------------|
--2---3---2-----|
--2---3---2-----|
----------------|
------3---2-----|

--x-----0---------0-------0----------0-|
--x---4----------------4---4---------0-|
--x--4-4-------2------4-4---4----2-----| (till fade)
--4------------------------------------|
----------0-2------0s4---------2-------|


Maybe you soon forget about all
or maybe you'll miss it like I do

one thing's for sure:
I'm all knocked out
spend too much time thinking of you

And I can't get you out of my dreams
Now I know that you're the dangerous kind
and your smile is tattooed on my mind
And I can't get you out of my dreams

Don't wanna write, I don't wanna call,
- I would not know what to say
It should be you, that's how I want it to be
Tell me you feel the same way

And I can't get you out of my dreams
Now I know that you're the dangerous kind
and your smile is tattooed on my mind
and I can't get you out of my dreams

Oh, yesterday I was feeling safe
All I do today is trying to be brave
And no melody can seem to soothe my mind
And now I curse you for being so sweet and so kind

And I can't get you out of my dreams
Now I know that you're the dangerous kind
and your face is tattooed on my mind
And I can't get you out of my dreams

Yes I know you're tatooed on my mind you're tatooed.....


 hope u guys got this...yan improve na! may lyrics na! hehehehe! vote nyo ah! email me
for more tabs or questions --rafaelmiguelfermin@yahoo.com-- user id din sa ym... peace
out... mitchie cutie is sungit padin! hehe! 
Comments