Dsound - Tattooed On My Mind Chords & Tabs

 

Tattooed On My Mind Chords & Tabs

Dsound Chords & Tabs

Version: 2 Type: Tab 0 ratings
1 star 2 stars 3 stars 4 stars 5 stars
comments

Tattooed On My Mind Tab

tattooed on my mind
by: d'sound

tattooed on my mind

intro:
---------------------------------0-----|
-----5h7-9--9-7-----5-0-----2-0h2------|
-6h8-----------------------2-----------|
-----------7--------------2------------|
---------0-----0--6-6-0----------------|
----------------4-------2--------------|

-4--4---4--7--------0------------------|
----4tap-------------0---0-------------|
----------------2-1h2-2-2--------------|
---6-----------2-------2---------------|
-4------4-----0------------------------|
-------------2-------------------------|

--------------4---4----4---------------|
-9-9-7---5-7------2tap-2---------------|
---------------------------------------|
--7-------------2----------------------|
-0----0--6----4--------4---------------|
-------4-------------------------------|

verse:
------0tap----------0tap-I------0-----------------|
-4--4----------2-0h2-----I-4--4--4----------0-----|
---4-4--------2----------I---4-4--4----2-1h2------|
-------------2-----------I------------2-----------|
-4-----------------------I-4---------0------------|
------------2------------I----------2-------------|

-0--0---2-2s4-I------0-0-2---------0--------------|
-2--2---------I-4--4----------------0-------------|
-2--2tap------I---4-4---------2-1h2--2---2tap-----|
-2-2----------I--------------2--------------------|
-0------------I-4-----------0----------0----------|
--------------I------------2----------------------|

CHORUS:

------------------------0--------|
-9-9-7-----5-0-----2-0h2-2-------|
------------------2-------2---2--|
--7--------------2-----------2---|
-0----0--6-6-0--------------0----|
-------4--------2----------------|

------0-----------0------|
-4--4--4-----------0--0--|
---4-4--4----2-1h2--2-2--|
------------2--------2---|
-4---------0-------------|
----------2--------------|

------0-0-2---------0--------|
-4--4----------------0-------|
---4-4---------2-1h2--2--2---|
--------------2---------2----|
-4-----------0---------0-----|
------------2----------------|

[ Tab from: http://www.guitartabs.cc/tabs/d/dsound/tattooed_on_my_mind_tab_ver_2.html ]
--------------4---4----4------------------------|
-9-9-7---5-7------2tap-2------------------------|
------------------------------------------------|
--7-------------2-------------------------------|
-0----0--6----4--------4------------------------|
-------4----------------------------------------|

repeat the verse,then chorus

bridge:
yesterday..safe...do today..brave...melody..mind
-------------2---------------2---------------2--|
-----0-------4-------0-------4-------0-------4--|
-----2-------4-------2-------4-------2-------4--|
-----2-------2-------2-------2-------2-------2--|
-----0-------4-------0-------4-------0-------4--|
-----2-------0-------2-------0-------2-------0--|

and now i..
  curse you..being...sweet...kind
-----0---------2-------0-------0---|
-----2---------4-------5-------7---|
-----2---------4-------4-------6---|
-----2---------2-------6-------7---|
-----0---------4-------0-------0---|
-----2---------0-------------------|

chorus:
CHORUS:

------------------------0--------|
-9-9-7-----5-0-----2-0h2-2-------|
------------------2-------2---2--|
--7--------------2-----------2---|
-0----0--6-6-0--------------0----|
-------4--------2----------------|

------0-----------0------|
-4--4--4-----------0--0--|
---4-4--4----2-1h2--2-2--|
------------2--------2---|
-4---------0-------------|
----------2--------------|

------0-0-2---------0--------|
-4--4----------------0-------|
---4-4---------2-1h2--2--2---|
--------------2---------2----|
-4-----------0---------0-----|
------------2----------------|


--------------4---4----4--7--|
-9-9-7---5-7------2tap-2-----|
-----------------------------|
--7-------------2------------|
-0----0--6----4--------4-----|
-------4---------------------|
yes i know 		on my mind
you're tattoed...       you're tattooed....
(strumming)
---0------------------------0--------------|
---2------------------------5--------------|
---2------------------------6--------------|
---2------------------------6--------------|
---0------------------------4--------------|
---2------------------------0--------------|
Comments