Dsound - Tattooed On My Mind Chords & Tabs

 

Tattooed On My Mind Chords & Tabs

Dsound Chords & Tabs

Version: 1 Type: Tab 0 ratings
1 star 2 stars 3 stars 4 stars 5 stars
comments

Tattooed On My Mind Tab

im trying to get the entire song...i have the partial tabs for the entire
song but im still trying to get the finishing touches...i'll be posting
it as soon as i finish it, SO WATCH OUT FOR IT..k? this is just the intro
lead part of the song..listen to the CD for the timing...

by the way, this is my own rendition of the song..

hello nga pala sa mga taga naga city at los baņos (lalo na sa mga tga UPLB)..

STANDARD TUNING (ebgdae)

/=slide
h=hammer on
p=pull off
[ Tab from: http://www.guitartabs.cc/tabs/d/dsound/tattooed_on_my_mind_tab.html ]
e|------0-2-2h4--2-0---0-------|----0---------0---------|
b|--2/4--------------4---0-0h2-|--2---2h4-4-----4-------|
g|-----------------------------|------------4-----4-4p2-|
d|-----------------------------|------------------------|
a|-----------------------------|------------------------|
e|-----------------------------|------------------------|


e|----0---------0-0-0h2p0--|
b|--2---2h4-4--------------|
g|------------4------------|
d|-------------------------|
a|-------------------------|
e|-------------------------|

jus wait for my entire tab..get it? or if can't wait, then why don't you tab
it urself you dang old lazy monkey..LOLZ  =p
Comments