Dschinghis Khan - Moskau Moskau Chords & Tabs

 

Moskau Moskau Chords & Tabs

Dschinghis Khan Chords & Tabs

Version: 1 Type: Bass Tab 0 ratings
1 star 2 stars 3 stars 4 stars 5 stars
comments

Moskau Moskau Bass Tab

Moskau
Dschinghis Khan
Bass Tab

132BPM, 4/4

This is the longer version (4:33). Scroll down for short version.

Intro

|-------------|-------------|-------------|-------------|
|-3--3--3--3--|-3--3--3--3--|-3--3--3--3--|-3--3--3--3--|
|-------------|-------------|-------------|-------------|
|-------------|-------------|-------------|-------------|

|-------------|-------------|-------------|-------------|
|-1--1--1--1--|-1--1--1--1--|-1--1--1--1--|-1--1--1--1--|
|-------------|-------------|-------------|-------------|
|-------------|-------------|-------------|-------------|

||--------------|-------------|-------------|--------------||
||o-3--3--3--3--|-3--3--3--3--|-1--1--1--1--|-1--1--1--1--o||
||o-------------|-------------|-------------|-------------o||
||--------------|-------------|-------------|--------------||

Verse

||--------------|-------------|-------------|-------------|
||o-3--3--3--3--|-------------|-------------|-------------|
||o-------------|-4--4--4--4--|-------------|-1--1--1--1--|
||--------------|-------------|-4--4--4--4--|-------------|

|-------------|-------------|-------------|--------------||
|-3--3--3--3--|-------------|-3--3--3--3--|-3--3--3--3--o||
|-------------|-3--3--3--3--|-------------|-------------o||
|-------------|-------------|-------------|--------------||

Pre-chorus

|-------------|-------------|-------------|-------------|
|-1-----------|-3-----3-----|-1-----------|-3-----3-----|
|----1--3-----|----3-----3--|----1--3-----|----3-----3--|
|----------3--|-------------|----------3--|-------------|

|-------------|-------------|-------------|-------------|
|-1-----------|-3-----3-----|-------------|-------------|
|----1--3-----|----3-----3--|-------1--1--|-3--3--3--3--|
|----------3--|-------------|-4--4--------|-------------|

|---------------|
|-------------2-|
|-3--3--3-3-5---|
|---------------|

Chorus

|-------------|-------1-----|-3------------|------------5--|
|-3-----3-----|----------1--|----3--3-3----|---------------|
|----3-----3--|-4-----------|-----------3--|-1-1-2-2-3-----|
|-------------|----4--------|--------------|---------------|

|-------------|-------1-----|-3-----------|---------------|
|-3-----3-----|----------1--|----3--3-----|------------3--|
|----3-----3--|-4-----------|----------3--|-3-1-----------|
|-------------|----4--------|-------------|-----4-3-1-----|
                                                 
|-------------|-------1-----|-3-----------|------------5--|
|-3-----3-----|----------1--|----3--3-----|---------------|
|----3-----3--|-4-----------|----------3--|-1-1-2-2-3-----|
|-------------|----4--------|-------------|---------------|
                                           2/4
|-------------|-------1-----|-3-----------|---------|
|-3-----3-----|----------1--|----3--3-----|---------|
|----3-----3--|-4-----------|----------3--|-3-1-----|
|-------------|----4--------|-------------|-----4-3-|

|-------------|-------------|-------------|-------------|
|----3--3--3--|-3--3--3--3--|-1--1--1--1--|-1--1--1--1--|
|-------------|-------------|-------------|-------------|
|-1-----------|-------------|-------------|-------------|

Verse

|-------------|-------------|-------------|-------------|
|-3--3--3--3--|-------------|-------------|-------------|
|-------------|-4--4--4--4--|-------------|-1--1--1--1--|
|-------------|-------------|-4--4--4--4--|-------------|

|-------------|-------------|-------------|-----------------|
|-3--3--3--3--|-------------|-3--3--3--3--|-3-1-1-1-1-1-2-2-|
|-------------|-3--3--3--3--|-------------|-----------------|
|-------------|-------------|-------------|-----------------|

|-------------|-------------|-------------|-------------|
|-3--3--3--3--|-------------|-------------|-------------|
|-------------|-4--4--4--4--|-------------|-1--1--1--1--|
|-------------|-------------|-4--4--4--4--|-------------|

|-------------|-------------|-------------|-------------|
|-3--3--3--3--|-------------|-3--3--3--3--|-3--3--3--3--|
|-------------|-3--3--3--3--|-------------|-------------|
|-------------|-------------|-------------|-------------|

Pre-chorus

|-------------|-------------|-------------|-------------|
|-1-----------|-3-----3-----|-1-----------|-3-----3-----|
|----1--3-----|----3-----3--|----1--3-----|----3-----3--|
|----------3--|-------------|----------3--|-------------|

|-------------|-------------|-------------|-------------|
|-1-----------|-3-----3-----|-------------|-------------|
|----1--3-----|----3-----3--|-------1--1--|-3--3--3--3--|
|----------3--|-------------|-4--4--------|-------------|

|---------------|
|-------------2-|
|-3--3--3-3-5---|
|---------------|

Chorus

|-------------|-------1-----|-3-----------|------------5--|
|-3-----3-----|----------1--|----3--3-----|---------------|
|----3-----3--|-4-----------|----------3--|-1-1-2-2-3-----|
|-------------|----4--------|-------------|---------------|

|-------------|-------1-----|-3-----------|---------------|
|-3-----3-----|----------1--|----3--3-----|------------3--|
|----3-----3--|-4-----------|----------3--|-3-1-----------|
|-------------|----4--------|-------------|-----4-3-1-----|
                                                 
|-------------|-------1-----|-3-----------|------------5--|
|-3-----3-----|----------1--|----3--3-----|---------------|
|----3-----3--|-4-----------|----------3--|-1-1-2-2-3-----|
|-------------|----4--------|-------------|---------------|
                                           2/4
|-------------|-------1-----|-3-----------|---------|
|-3-----3-----|----------1--|----3--3-----|---------|
|----3-----3--|-4-----------|----------3--|-3-1-----|
|-------------|----4--------|-------------|-----4-3-|
   
Bridge
                                                            
|-------------|-------------|-------------|-------------|
|----3--3--3--|-3--3--3--1--|-------------|-------------|
|-------------|-------------|-4--4--4--4--|-4--4--4--3--|
|-1-----------|-------------|-------------|-------------|

|-------------|-------------|-------------|--------------|
|-------------|-------------|-------------|--------------|
|-1--1--1--1--|-1--1--1--1--|-3--3--3--3--|-3--3--3--3-3-|
|-------------|-------------|-------------|--------------|

|---------------|
|-------------2-|
|-3--3--3-3-5---|
|---------------|

Chorus

|-------------|-------1-----|-3-----------|------------5--|
|-3-----3-----|----------1--|----3--3-----|---------------|
|----3-----3--|-4-----------|----------3--|-1-1-2-2-3-----|
|-------------|----4--------|-------------|---------------|
                                           2/4
|-------------|-------1-----|-3-----------|---------| 
|-3-----3-----|----------1--|----3--3-----|---------|
|----3-----3--|-4-----------|----------3--|-3-1-----|  
|-------------|----4--------|-------------|-----4-3-|  

|-------------|-------------|-------------|-------------|
|----3--3--3--|-3--3--3--3--|-3--3--3--3--|-3--3--3--3--|
|-------------|-------------|-------------|-------------|
|-1-----------|-------------|-------------|-------------|

Pre-chorus
[ Tab from: http://www.guitartabs.cc/tabs/d/dschinghis_khan/moskau_moskau_btab.html ]
|-------------|-------------|-------------|-------------|
|-1-----------|-3-----3-----|-1-----------|-3-----3-----|
|----1--3-----|----3-----3--|----1--3-----|----3-----3--|
|----------3--|-------------|----------3--|-------------|

|-------------|-------------|-------------|-------------|
|-1-----------|-3-----3-----|-------------|-------------|
|----1--3-----|----3-----3--|-------1--1--|-3--3--3--3--|
|----------3--|-------------|-4--4--------|-------------|

|--------------|
|--------------|
|-3--3--3-3-3--|
|--------------|

Chorus

|-------------|-------1-----|-3-----------|------------5--|
|-3-----3-----|----------1--|----3--3-----|---------------|
|----3-----3--|-4-----------|----------3--|-1-1-2-2-3-----|
|-------------|----4--------|-------------|---------------|

|-------------|-------1-----|-3-----------|---------------|
|-3-----3-----|----------1--|----3--3-----|------------4--|
|----3-----3--|-4-----------|----------3--|-3-1-----------|  
|-------------|----4--------|-------------|-----4-3-1-----|  

|-------------|-------------|-4-----------|------------6--|
|-4-----4-----|-------7-----|----4--4-----|---------------|
|----4-----4--|-5--------7--|----------4--|-2-2-3-3-4-----|
|-------------|----5--------|-------------|---------------|

|-------------|-------------|-4-----------|---------------|
|-4-----4-----|-------7-----|----4--4-----|---------------|
|----4-----4--|-5--------7--|----------4--|-4-------------|
|-------------|----5--------|-------------|---7-5-4-2--2--|

|---------*|
|---------*|
|---------*|
|---------*|

Short version (3:22)

Intro

|-------------|-------------|-------------|-------------|
|-3--3--3--3--|-3--3--3--3--|-3--3--3--3--|-3--3--3--3--|
|-------------|-------------|-------------|-------------|
|-------------|-------------|-------------|-------------|

|-------------|-------------|-------------|-------------|
|-1--1--1--1--|-1--1--1--1--|-1--1--1--1--|-1--1--1--1--|
|-------------|-------------|-------------|-------------|
|-------------|-------------|-------------|-------------|

||--------------|-------------|-------------|--------------||
||o-3--3--3--3--|-3--3--3--3--|-1--1--1--1--|-1--1--1--1--o||
||o-------------|-------------|-------------|-------------o||
||--------------|-------------|-------------|--------------||

Verse

||--------------|-------------|-------------|-------------|
||o-3--3--3--3--|-------------|-------------|-------------|
||o-------------|-4--4--4--4--|-------------|-1--1--1--1--|
||--------------|-------------|-4--4--4--4--|-------------|

|-------------|-------------|-------------|--------------||
|-3--3--3--3--|-------------|-3--3--3--3--|-3--3--3--3--o||
|-------------|-3--3--3--3--|-------------|-------------o||
|-------------|-------------|-------------|--------------||

Pre-chorus

|-------------|-------------|-------------|-------------|
|-1-----------|-3-----3-----|-1-----------|-3-----3-----|
|----1--3-----|----3-----3--|----1--3-----|----3-----3--|
|----------3--|-------------|----------3--|-------------|

|-------------|-------------|-------------|-------------|
|-1-----------|-3-----3-----|-------------|-------------|
|----1--3-----|----3-----3--|-------1--1--|-3--3--3--3--|
|----------3--|-------------|-4--4--------|-------------|

|---------------|
|-------------2-|
|-3--3--3-3-5---|
|---------------|

Chorus 

||--------------|-------1-----|-3-----------|------------5--|
||o-3-----3-----|----------1--|----3--3-----|---------------|
||o----3-----3--|-4-----------|----------3--|-1-1-2-2-3-----|
||--------------|----4--------|-------------|---------------|

|-------------|-------1-----|-3-----------|----------------|| 
|-3-----3-----|----------1--|----3--3-----|------------3--o||
|----3-----3--|-4-----------|----------3--|-3-1-----------o||  
|-------------|----4--------|-------------|-----4-3-1------||  
   
|-------------|-------1-----|-3-----------|------------5--|
|-3-----3-----|----------1--|----3--3-----|---------------|
|----3-----3--|-4-----------|----------3--|-1-1-2-2-3-----|
|-------------|----4--------|-------------|---------------|
                                           2/4
|-------------|-------1-----|-3-----------|---------|
|-3-----3-----|----------1--|----3--3-----|---------|
|----3-----3--|-4-----------|----------3--|-3-1-----|  
|-------------|----4--------|-------------|-----4-3-|  

Bridge
                                                            
|-------------|-------------|-------------|-------------|
|----3--3--3--|-3--3--3--1--|-------------|-------------|
|-------------|-------------|-4--4--4--4--|-4--4--4--3--|
|-1-----------|-------------|-------------|-------------|

|-------------|-------------|-------------|--------------|
|-------------|-------------|-------------|--------------|
|-1--1--1--1--|-1--1--1--1--|-3--3--3--3--|-3--3--3--3-3-|
|-------------|-------------|-------------|--------------|

|---------------|
|-------------2-|
|-3--3--3-3-5---|
|---------------|

Chorus

|-------------|-------1-----|-3-----------|------------5--|
|-3-----3-----|----------1--|----3--3-----|---------------|
|----3-----3--|-4-----------|----------3--|-1-1-2-2-3-----|
|-------------|----4--------|-------------|---------------|
                                           2/4
|-------------|-------1-----|-3-----------|---------|
|-3-----3-----|----------1--|----3--3-----|---------|
|----3-----3--|-4-----------|----------3--|-3-1-----|  
|-------------|----4--------|-------------|-----4-3-| 

|-------------|-------------|-------------|-------------|
|----3--3--3--|-3--3--3--3--|-3--3--3--3--|-3--3--3--3--|
|-------------|-------------|-------------|-------------|
|-1-----------|-------------|-------------|-------------|

Pre-chorus

|-------------|-------------|-------------|-------------|
|-1-----------|-3-----3-----|-1-----------|-3-----3-----|
|----1--3-----|----3-----3--|----1--3-----|----3-----3--|
|----------3--|-------------|----------3--|-------------|

|-------------|-------------|-------------|-------------|
|-1-----------|-3-----3-----|-------------|-------------|
|----1--3-----|----3-----3--|-------1--1--|-3--3--3--3--|
|----------3--|-------------|-4--4--------|-------------|

|--------------|
|--------------|
|-3--3--3-3-3--|
|--------------|

Chorus

|-------------|-------1-----|-3-----------|------------5--|
|-3-----3-----|----------1--|----3--3-----|---------------|
|----3-----3--|-4-----------|----------3--|-1-1-2-2-3-----|
|-------------|----4--------|-------------|---------------|

|-------------|-------1-----|-3-----------|---------------|
|-3-----3-----|----------1--|----3--3-----|------------4--|
|----3-----3--|-4-----------|----------3--|-3-1-----------|  
|-------------|----4--------|-------------|-----4-3-1-----|  

|-------------|-------------|-4-----------|------------6--|
|-4-----4-----|-------7-----|----4--4-----|---------------|
|----4-----4--|-5--------7--|----------4--|-2-2-3-3-4-----|
|-------------|----5--------|-------------|---------------|

|-------------|-------------|-4-----------|---------------|
|-4-----4-----|-------7-----|----4--4-----|---------------|
|----4-----4--|-5--------7--|----------4--|-4-------------|
|-------------|----5--------|-------------|---7-5-4-2--2--|

|---------*|
|---------*|
|---------*|
|---------*|
 
Comments