Dry The River - New Ceremony Chords & Tabs

 

New Ceremony Chords & Tabs

Dry The River Chords & Tabs

Version: 2 Type: Tab 0 ratings
1 star 2 stars 3 stars 4 stars 5 stars
comments

New Ceremony Tab

   
Standard Tuning 
Capo 4

Any corrections are welcome, enjoy :) 



(D' is xx0332, I'm not sure what it's called.)

Intro:


      D       D'      Bm              G               F#m
  
e|------2---2---2---2--------------------------------------------------------|
B|------3---3---3---3---3---3---3---3----------------------------------------|
G|------2---2---3---3---4---4---4---4---4---4---4---4---2---2---2---2--------|
D|----0---0---0---0-----4---4---4---4---5---5---5---5---4---4---4---4--------|
A|--------------------2---2---2---2-----5---5---5---5---4---4---4---4--------|
E|------------------------------------3---3---3---3---2---2---2---2----------|  X2


Verse 1

"I waited by your bedside ..." 

e|------2---2---2---2--------------------------------------------------------|
B|------3---3---3---3---3---3---3---3----------------------------------------|
G|------2---2---3---3---4---4---4---4---4---4---4---4---2---2---2---2--------|
D|----0---0---0---0-----4---4---4---4---5---5---5---5---4---4---4---4--------|
A|--------------------2---2---2---2-----5---5---5---5---4---4---4---4--------|
E|------------------------------------3---3---3---3---2---2---2---2----------|


"It's anybody's guess how ..."

e|------2---2---2---2--------------------------------------------------------|
B|------3---3---3---3---3---3---3---3----------------------------------------|
G|------2---2---3---3---4---4---4---4---4---4---4---4---2---2---2---2--------|
D|----0---0---0---0-----4---4---4---4---5---5---5---5---4---4---4---4--------|
A|--------------------2---2---2---2-----5---5---5---5---4---4---4---4--------|
E|------------------------------------3---3---3---3---2---2---2---2----------|


"after we danced to the ..."                          A
[ Tab from: http://www.guitartabs.cc/tabs/d/dry_the_river/new_ceremony_tab_ver_2.html ]
e|------2---2---2---2--------------------------------------------------------|
B|------3---3---3---3---3---3---3---3----------------------------------------|
G|------2---2---3---3---4---4---4---4---4---4---4---4---6---6---6---6--------|
D|----0---0---0---0-----4---4---4---4---5---5---5---5---7---7---7---7--------|
A|--------------------2---2---2---2-----5---5---5---5---7---7---7---7--------|
E|------------------------------------3---3---3---3---5---5---5---5----------|



"i know it's gotta stop love..."

e|------2---2---2---2-------------------2---2---2---2------------------------|
B|------3---3---3---3---2---2---2---2---3---3---3---3------------------------|
G|------2---2---2---2---2---2---2---2---2---2---2---2------------------------|
D|----0---0---0---0-----2---2---2---2-0---0---0---0--------------------------|
A|--------------------0---0---0---0------------------------------------------|
E|---------------------------------------------------------------------------|


Verse 2 is the same as verse 1. 




D                           D'
Shine a little light, don't wrestle with the night

      Bm                G                          
don't think about the future 

                 D               A         D                           
I know its gotta stop love but i don't know how


Em           G               D                A             
 My little one, my kettle drum (know i had a message at the start)

Em           G               D                A   
 My babel tongue, my come undone ( i know i had a message at the start)

Em           G               D                A  
 My prison kiss, my dying wish (i know i had a message at the start)

Em             G                          A
              But it up and abandoned us, when we were sleeping in our beds





Then there's the rest of the song but i don't think i need to do that since there' nothing new.


Comments