Dry The River - Bible Belt Chords & Tabs

 

Bible Belt Chords & Tabs

Dry The River Chords & Tabs

Version: 3 Type: Tab 0 ratings
1 star 2 stars 3 stars 4 stars 5 stars
comments

Bible Belt Tab

   
e|--------------------------------------------------|
B|-------10---------10--------10--------12p10-------|
G|---11--------11---------11--------11--------11----|
D|---0---------0----------0---------0---------------|
A|--------------------------------------------------|
E|--------------------------------------------------|

e|--------------------------------------------------|
B|--------------------------------------------------|
G|--------11---------11--------11h12p11--9------9---|
D|---9---------9----------9-----------------12------|
A|---10--------10---------10------------------------|
E|--------------------------------------------------| X6



e|--------------------------------------------------|
B|-------10------12------14------10------15--14-----|
G|---11------11------11------11------11-------------|
D|---0-----------------------0----------------------|
A|--------------------------------------------------|
E|--------------------------------------------------|

e|--------------------------------------------------|
B|----------10-----12-----14--------10-----12--10---|
G|-------9------9------9---------9------9-----------|
D|---11----------------------11---------------------|
A|---0-----------------------0----------------------|
E|--------------------------------------------------|



e|--------------------------------------------------|
B|-------10---------10--------10--------12p10-------|
G|---11--------11---------11--------11--------11----|
D|---0---------0----------0---------0---------------|
A|--------------------------------------------------|
E|--------------------------------------------------|

e|--------------------------------------------------|
B|--------------------------------------------------|
G|--------11---------11--------11h12p11--9------9---|
D|---9---------9----------9-----------------12------|
A|---10--------10---------10------------------------|
E|--------------------------------------------------| X4



 
Em                                         D
You swear blind there is no weight in the water pail 
[ Tab from: http://www.guitartabs.cc/tabs/d/dry_the_river/bible_belt_tab_ver_3.html ]
Em                                               D
You say, "My love, you take the cards that you're dealt."

               Em                             D
Cuz there's no guiding light arcing a line to Bethlehem. 




                                          e|--------------------------------------------------|
                                          B|-------10---------10--------10--------------------|
                                          G|---11--------11---------11--------11--------------|
                                          D|---0---------0----------0---------0---------------|
                                          A|--------------------------------------------------|
Em                                        E|--------------------------------------------------|
If it's dark outside you light the fire yourself. 

G                                                                                       D
Darling when the ice caps melt, when the devil's in the bible belt, don't cower in your bed. 

               G                                                           D
I'll be on the 5:45, you can meet me at the railway line, and don't look so scared. 

Bm                                                       D
Cuz we've been through worse than this, before we could talk. 

G                                        D
The trick of it is, don't be afraid any more.



                                             e|---------------------------------10---------------|
                                             B|-------10---------10--------10--------------------|
                                             G|---11--------11---------11------------------------|
                                             D|---0---------0----------0-------------------------|
                                             A|--------------------------------------------------|
Em                                           E|--------------------------------------------------|
Oh, The trick of it is, don't be afraid any more.
	
	
Comments