Dry Kill Logic - Weight Chords & Tabs

 

Weight Chords & Tabs

Dry Kill Logic Chords & Tabs

Version: 1 Type: Tab 0 ratings
1 star 2 stars 3 stars 4 stars 5 stars
comments

Weight Tab

   
BITCHIN' TABS

          URL: www.angelfire.com/goth/btab/
	EMAIL: btabmaster@hotmail.com

        THIS IS AN EXCLUSIVE TAB TO "BITCHIN' TABS"

 ----------------------------------------------------------------------------------------------

	     SONG: Weight
	     BAND: Dry Kill Logic
	    ALBUM: The Darker Side of Nonsence
   TRANSCRIBED BY: Chris Frazier (btabmaster@hotmail.com)
	     DATE: 07-23-2K1

 ----------------------------------------------------------------------------------------------

	TUNING: Drop D and down 1 step (C G C F A D)
[ Tab from: http://www.guitartabs.cc/tabs/d/dry_kill_logic/weight_tab.html ]
     Riff 1:
    D|-----------------------------------------------------------------|
    A|-----------------------------------------------------------------|
    F|-----4br-----4br-----4br-----------4br-----4br-----4br-----4br---| br=bend then release
    C|-----------------------------------------------------------------| bend the 4's up 1/2 step
    G|-3-3-----3-3-----3-3-----3-3-0-2-2-----2-2-----2-2-----2-2-----0-|
    C|-----------------------------------------------------------------|

     Riff 2:
    D|------------------------------------------------/12-|
    A|----------------------------------------------------|
    F|----------------------------------------------------|
    C|-0-1-0-0--0-1-0-0--0-1-0--0-1-0-0--0-1-0-0--0-1-----|
    G|-0-1-0-0--0-1-0-0--0-1-0--0-1-0-0--0-1-0-0--0-1-----|
    C|-0-1-0-0--0-1-0-0--0-1-0--0-1-0-0--0-1-0-0--0-1-----|

     Riff 3:
    D|-----------------|------------------|
    A|-----------------|------------------|
    F|-----------------|------------------| PM=palm mute
    C|-7-6-7-6-7-6-7-7-|-7-6-7-6-7-6-5br--| bend the 5 up 1/2 step and back down
    G|-7-6-7-6-7-6-7-7-|------------------|
    C|-7-6-7-6-7-6-7-7-|------------------|
     PM              -

     Riff 4: (very quitely, clean)
    D|-----|
    A|-----|
    F|-----| played over and over
    C|-----|
    G|-----|
    C|-6-7-|

     Riff 5:
    D|--------------------|
    A|--------------------|
    F|--------------------|
    C|-3-2-x-x-0-2--x-x-2-|
    G|-3-2-x-x-0-2--x-x-2-|
    C|-3-2-x-x-0-2--x-x-2-|
     PM  -       -      -
Comments