Dry Kill Logic - Track 1 Chords & Tabs

 

Track 1 Chords & Tabs

Dry Kill Logic Chords & Tabs

Version: 1 Type: Bass Tab 0 ratings
1 star 2 stars 3 stars 4 stars 5 stars
comments

Track 1 Bass Tab

This is a tab for 'track 13' which is actually trck 9 on the CD. but something went wrong with the name.

All of Riffs 2, 4 and 5 are slapped.

Riff 1:x2
Play it when the bass drumm plays
G-------|
D-------|
A-------|
D--5----|
[ Tab from: http://www.guitartabs.cc/tabs/d/dry_kill_logic/track_1_btab.html ]
Riff 2:x1
G----------------------------------------------------|
D--------------------------0-----0-----0-----0-------|
A----------------------------32----32----32----32----|
D--5-33--5-33--5-33--5-33----------------------------|

Riff 3:x4
G------------------------|
D------------------------|
A------------------------|
D--1-0-1-0-11-0-13--5----|

Riff 1:x4

Riff 2:x1

Riff 3:x8

Riff 4:x4
G---------------------|
D---------------------|
A---------------------|
D--1-000-1-0-101-3----|

Riff 1:x4

Riff 4:x3

Riff 5:x1
G------------------|
D------------------|
A------------------|
D--1-000-1-0-10----|
Comments