Dry Kill Logic - Track 13 Chords & Tabs

 

Track 13 Chords & Tabs

Dry Kill Logic Chords & Tabs

Version: 2 Type: Tab 0 ratings
1 star 2 stars 3 stars 4 stars 5 stars
comments

Track 13 Tab

Dry Kill Logic - Track 13

The Darker side of Nonsense

I'm Submitting this tab to correct the first guy that tabbed
this song, there only simple corrections the intro and chorus
thats pritty much it anyways i hope u like it.


 Intro & Verse :
                                        3x
e|-----------------------------------------|
B|--3--------3-----3-3-3-3-----3b----------|
G|--0--0-0-0-0-0-0-0-0-0-0-0-2-2b-(2)-2-0--|
D|--1--1-1-1-1-1-1-1-0-0-0-1---------------|
A|-----------------------------------------|
D|-----------------------------------------|

e|--------------------------------|
B|--3--------3-----3-3-3---3-3-3--|
G|--0--0-0-0-0-0-0-0-0-0-0-0-0-0--|
D|--1--1-1-1-1-1-1-1-0-0-0-1-1-1--|
A|--------------------------------|
D|--------------------------------|

 Chorus :

e|---------------------------------------------------|
B|---------------------------------------------------|
G|---------------------------------------------------|
D|--1-1-1-1-1-0-1----7\\\----1-1-1-1-1-0-1---7\\\----|
A|--1-1-1-1-1-0-1----7\\\\---1-1-1-1-1-0-1---7\\\\---|
D|--1-1-1-1-1-0-1----7\\\\\--1-1-1-1-1-0-1---7\\\\\--|


[ Tab from: http://www.guitartabs.cc/tabs/d/dry_kill_logic/track_13_tab_ver_2.html ]
e|------------------------------------------------------|
B|------------------------------------------------------|
G|------------------------------------------------------|
D|--1-1-1-1-1-0-1----7\\\-------1-1-0---1-1-0----1-1-0--|
A|--1-1-1-1-1-0-1----7\\\\------1-1-0---1-1-0----1-1-0--|
D|--1-1-1-1-1-0-1----7\\\\\-----1-1-0---1-1-0----1-1-0--|

    Okay around the second verse which starts after he says: 
 "Now i see the Light" another guitar starts playin...i dunno 
 what its playin u can figure it out.... :)

play chorus Twice then you play the Bridge....

 Bridge :
e|-----------------------------------------------------------|
B|-----------------------------------------------------------|
G|-----------------------------------------------------------|
D|-7-7-8-7--7--7--7--7-8-7-8~~~-7-7-8-7--7--7--7--7-8-7-8~~~-|
A|-7-7-8-7--7--7--7--7-8-7-8~~~-7-7-8-7--7--7--7--7-8-7-8~~~-|
D|-7-7-8-7--7--7--7--7-8-7-8~~~-7-7-8-7--7--7--7--7-8-7-8~~~-|

e|-----------------------------------------------------------|
B|-----------------------------------------------------------|
G|-----------------------------------------------------------|
D|-7-7-8-7--7--7--7--7-8-7-8~~~-7-7-8-7--7--7--7--7-8-7-8~~~-|
A|-7-7-8-7--7--7--7--7-8-7-8~~~-7-7-8-7--7--7--7--7-8-7-8~~~-|
D|-7-7-8-7--7--7--7--7-8-7-8~~~-7-7-8-7--7--7--7--7-8-7-8~~~-|

play Intro/Verse once then play Chorus once then thats it!

If there is anything wrong with these tabs which i know there is!
email me @ Hating_everything_@hotmail.com

Thank you....
Comments