Dry Kill Logic - Rot Chords & Tabs

 

Rot Chords & Tabs

Dry Kill Logic Chords & Tabs

Version: 3 Type: Tab 0 ratings
1 star 2 stars 3 stars 4 stars 5 stars
comments

Rot Tab

   
-------------------------------------------------------------------------------
			    Rot - Dry Kill Logic
-------------------------------------------------------------------------------
Tabbed by:Jim #4
Email: Megalomaniac@grin.de
Tuning:Drop-C


this is the almost perfect version of DKL's Rot...you'll have to figure out 
how many times you have to play each riff


Intro/verse
d|-----------------------------|
A|-----------------------------|
F|-----------------------------|
C|-----------------------------|
G|-------1-0-0-0---------------|
C|-33-00-1-0-0-0---------------|
   ** **       

verse 2
d|--------------------------------------------------------|
A|--------------------------------------------------------|
F|--------------------------------------------------------|
C|--------------------------------------------------------|
G|-0-0--0-1-1--1-0-0--0-1-1-3-----------------------------|
C|-0-0--0-1-1--1-0-0--0-1-1-3-----------------------------|

then 
verse 1
verse 2


then

d|---------------------------------------|
A|---------------------------------------|
F|---------------------------------------|
C|---------------------------------------|
G|-0-0-0-0-0-0-0-1--0-0-0-0-0-0-0--------|
C|-0-0-0-0-0-0-0-1--0-0-0-0-0-0-0--------|

[ Tab from: http://www.guitartabs.cc/tabs/d/dry_kill_logic/rot_tab_ver_3.html ]
d|--------------------------------------------------------|
A|--------------------------------------------------------|
F|--------------------------------------------------------|
C|--------------------------------------------------------|
G|-0-0--0-1-1--1-0-0--0-1-1-3-----------------------------|
C|-0-0--0-1-1--1-0-0--0-1-1-3-----------------------------|



d|------------------------------------|
A|------------------------------------|
F|------------------------------------|
C|------------------------------------|
G|------------------------------------|
C|-0-0--0-111--1-000-0-1-1-3----------|
   * *  * ***  * ***        palm muted
these at the same time...
D|------------------| 
A|------------------| 
F|--8/7---8/7\14----| 
C|------------------| 
G|------------------| 
C|------------------| 




d|------------------------------     -----------|
A|------------------------------     -----------|
F|------------------------------     -----------|
C|------------------------------ then----8~-----|
G|---------------------5---5----     ----8~-----|
C|-0-6--0-6-0-6--0-6-0---0------     ----8~-----|


d|----------------------------------------------------------|
A|----------------------------------------------------------|
F|----------------------------------------------------------|
C|----------------------------------------------------------|
G|-0-1-0-0-0-0-0-0-1--0-1-0-0-00-0-1-0----------------------|
C|-0-1-0-0-0-0-0-0-1--0-1-0-0-00-0-1-0----------------------|

thats it!!!
Comments