Dry Kill Logic - Rot Chords & Tabs

 

Rot Chords & Tabs

Dry Kill Logic Chords & Tabs

Version: 1 Type: Tab 0 ratings
1 star 2 stars 3 stars 4 stars 5 stars
comments

Rot Tab

   
Artist - Dry Kill Logic
Title  - Rot
 
Tuning
E = C#
B = G#
G = E
D = B
A = F#
E = B

Key
[]
[] = repeat
P.M = Palm Mute
~ = Let Ring

Intro Part A  8x

E|-------------------------------------------------------|
B|-------------------[----------------------------]------|
G|-------------------------------------------------------|
D|-------------------------------------------------------|
A|--1----------------[----------------------------]------|
E|--1------------------1-1-1-1--2--1---1---1-------------|
Volume swell        P.M_ _ _ _ _ _ _ _ _ _ _

Intro Part B 8x

E|-------------------------------------------------------|
B|--[-------------------------]--------------------------|
G|-------------------------------------------------------|
D|-------------------------------------------------------|
A|--[-1-1-1-1--2--1---1---1---]----1-1-1-1--2---1--------|
E|----1-1-1-1--2--1---1---1--------1-1-1-1--2---1--------|
 P.M _ _ _ _ _ _ _ _ _ _ _         _ _ _ _ _ _ _ _


Verse\Pre-Verse ( for the verse just palm-mute it)
[ Tab from: http://www.guitartabs.cc/tabs/d/dry_kill_logic/rot_tab.html ]
E|-------------------------------------------------------|
B|-[------------------------------------------]----------|
G|-------------------------------------------------------|
D|-------------------------------------------------------|
A|-[-1-1-1--1--2-2-2--2--1-1-1--1--2---2---4--]----------|
E|---1-1-1--1--2-2-2--2--1-1-1--1--2---2---4-------------|
 
Chorus

E|-------------------------------------------------------|
B|-[---------------------------------------------------]-|
G|-------------------------------------------------------|
D|-------------------------------------------------------|
A|-[-1--1--1--1--1--1---1-2~-----1--1--1--1--1--1---1--]-|
E|---1--1--1--1--1--1---1-2~-----1--1--1--1--1--1---1----|





Bridge ( Not Quite sure about this bit, the last 8 is right though)

E|------------------------------------------------|
B|-[-----------------------------]----------------|
G|------------------------------------------------|
D|------------------------------------------------|
A|-[-----------------------------]----------------|
E|--7-7-7-8--8-7-7-8--7-8---------8~~-------------|


Outro

E|------------------------------------------------|
B|-[------------------------------------------]---|
G|------------------------------------------------|
D|------------------------------------------------|
A|-[-1-2-1-1-1-1-1-1-2-----1-2-1-1-1-1-1-1-1--]---|
E|---1-2-1-1-1-1-1-1-2-----1-2-1-1-1-1-1-1-1------|
Comments