Dry Kill Logic - Nightmare Chords & Tabs

 

Nightmare Chords & Tabs

Dry Kill Logic Chords & Tabs

Version: 1 Type: Tab 0 ratings
1 star 2 stars 3 stars 4 stars 5 stars
comments

Nightmare Tab

   
Album:The darker side of nonsense 
MUSIC;NIGHTMARE
ARTIST;DRY KILL LOGIC

Tuning:Drop D then tune down one whole step (C,G,C,F,A,D) 
*=Palm Mute 
/=Slide 
|H|=Harmonic 
Intro:Mild distortion 

D------------------------
A------------------------
F------------------------
C------------------------
G------------------------
C-2-3-2-0-2-0-2-0-2-0-2-0 
************************


D===-------------------------
A-=--------------------------
F----------------------------
C----------------------------
G---------------------------- 
C-2-3-2-0-2-0-2-0-2-0-2-0-2/3
************************** 


Second intro/Chorus:(Heavy distortion)
[ Tab from: http://www.guitartabs.cc/tabs/d/dry_kill_logic/nightmare_tab.html ]
 
D---------------------------
A---------------------------
F----------------------------
C-2-3-2-0-2-0-2-0-2-0-2-0-2/3 
G-2-3-2-0-2-0-2-0-2-0-2-0-2/3 
C-2-3-2-0-2-0-2-0-2-0-2-0-2/3

 
Verse: 

D--------------------------
A--------------------------
F--------------------------
C-0-0-X-0--0---0-1-1-1-1-3-3-3-3 
G-0-0-X-0--0---0-1-1-1-1-3-3-3-3 
C-0-0-X-0--0---0-1-1-1-1-3-3-3-3 
Interlude: 
the first intro riff, but the other guitar in the background goes like this 


 |H|*******|H|
D-------------
A-------------
F-------------
C-------------
G------------- 
C-4-0-0-0-0-3- 


Ending: 
second intro rif 
 
|H| 
D-----
A-----
F-----
C-----
G-----
C--4--
 
END
Comments