Dry Kill Logic - Goodnight Chords & Tabs

 

Goodnight Chords & Tabs

Dry Kill Logic Chords & Tabs

Version: 1 Type: Tab 0 ratings
1 star 2 stars 3 stars 4 stars 5 stars
comments

Goodnight Tab

   
#----------------------------------PLEASE NOTE---------------------------------#
#This file is the author's own work and represents their interpretation of the #
#song. You may only use this file for private study, scholarship, or research. #
#------------------------------------------------------------------------------##

Artist:Dry Kill Logic
  Song: Goodnight
 Album: The Darker Side of Nonsense
  Date: 12th July 2001
Transcribed by: Pete Kassell
     Tabbed by: Dave Menham (thefuriousd@netscapeonline.co.uk)

This is my first attempt at a tab so please if there are any corrections or alternative suggestions out there feel free to e-mail me...

Tuning - EADGBE

Chords Used :    Em 0220xx
          C x32010    
      Cadd9 x32033
       Em11 077777

Intro/Verse

  Em           C
E|-0------------------------------------------------------------------
B|---0h1p0-----0h1--1-------3p1------3-----3--1------0------0-0h1-----
G|----------0---------0---------0------0--------0------0----------0---
D|-2--------------------2---------2------2--------2------2----------2-
A|-------------3----------3-------------------------------------------
E|--------------------------------------------------------------------
[ Tab from: http://www.guitartabs.cc/tabs/d/dry_kill_logic/goodnight_tab.html ]
  Em           C
E|-0------------------------3p0--------------------------------------------
B|---0h1p0-----0h1--1----------------3-----1------0------1-------3-1-0-----
G|----------0---------0---------0------0-----0------0------0-----------0---
D|-2--------------------2---------2------2-----2------2------2-----------2-
A|-------------3----------3------------------------------------------------
E|-------------------------------------------------------------------------

End of Verse
  Em           C (strum from here)
E|-0----------|-0-
B|---0h1p0----|-1-
G|----------0-|-0-
D|-2----------|-2-
A|------------|-3-
E|------------|---

Bridge
E|---------------------------------------------------------
B|---------------------------------------------------------
G|-------0-----0-----0-----0--------0------0-----0-----0---
D|-----9-----9-----7-----9-------10-----10-----5-----4---4-
A|---7-----7-----5-----7-----7-8------8------3-----2-------
E|-0-------------------------------------------------------

Chorus

Strum around with the Cadd9 chord

Em   Cadd9   Em11  Cadd9

End of Song
   C(Strum)
E|-0----------------0-|
B|-1----------------1-|
G|-0-----------0----0-|
D|-2---------4---4--2-|
A|-3-------5--------3-|
E|--------------------|
Comments