Dry Cell - Heaven N Hot Rods Chords & Tabs

 

Heaven N Hot Rods Chords & Tabs

Dry Cell Chords & Tabs

Version: 1 Type: Tab 0 ratings
1 star 2 stars 3 stars 4 stars 5 stars
comments

Heaven N Hot Rods Tab

   
this is a kick a** awesome band that should get more attention then they do all
of there songs are exellent so this is my first tab but i just got tired of
seeing the same ones over and over again and i don't care if it's crappy. so i
think it's correct there might be just one wrong chord.plz somebody tab some more
songs by dry cell.

artist-dry cell
song-heaven"n"hot rods
album-disconnected
tuning-(d,a,d,g,b,e)

intro,verse       listen for how many times
[ Tab from: http://www.guitartabs.cc/tabs/d/dry_cell/heaven_n_hot_rods_tab.html ]
e-----------------------------------------------------------------
b-----------------------------------------------------------------
g---------------------------------------------------------7-x-7-x-
d-0-5-6-7--10-11-12--12-11-10--7-6-5--5-6-7--7-6-5--5-6-7---------
a-0-5-6-7--10-11-12--12-11-10--7-6-5--5-6-7--7-6-5--5-6-7---------
d-0-5-6-7--10-11-12--12-11-10--7-6-5--5-6-7--7-6-5--5-6-7---------

chorus x2
e-------------------------
b-------------------------
g-------------------------
d-0~----5-6-7~---7-6-5~---
a-0~----5-6-7~---7-6-5~---
d-0~----5-6-7~---7-6-5~---
 
someday the rest will be done
Comments