Dry Cell - Grape Jelly Chords & Tabs

 

Grape Jelly Chords & Tabs

Dry Cell Chords & Tabs

Version: 1 Type: Tab 0 ratings
1 star 2 stars 3 stars 4 stars 5 stars
comments

Grape Jelly Tab

Grape Jelly

this is played on a 7string
*=palm mute
()=harmonic

into with little distortion and at 53s
B|--------------------------------||
G|--------------------------------||
D|-3-----3-----2------------------||
A|-1-----5-----3------------------||
E|-1-----5-----3------------------||
A|-1-----5-----3------------------||

14s				   20s
B|-------------------------------||-------------------------------||
G|-----------------------times 2-||-------------------------------||
D|-3--2--------------------------||-2-3---------------------------||
A|-3--2---0-0-0-----0-0-0--------||-2-3---------------------------||
E|-1--0---0-0-0-----0-0-0--------||-0-1---------------------------||
A|--------0-0-0-----0-0-0--------||-------------------------------||
[ Tab from: http://www.guitartabs.cc/tabs/d/dry_cell/grape_jelly_tab.html ]
41s
B|------------------------------------------------||
G|------------------------------------------------||
D|-*-*-*-*-*--------*-*-*-*-*---------------------||
A|-0-0-0-0-0--1-----0-0-0-0-0--0------------------||
E|-0-0-0-0-0--1-----0-0-0-0-0--0------------------||
A|-0-0-0-0-0--1-----0-0-0-0-0--0------------------||

from 1:07 this repeats in the background
B|----------------||
G|---12---10------||
D|----------------||
A|----------------||
E|----------------||
A|----------------||

2:11
B|--8-----------------------------||
G|--------------------------------||
D|--------------------------------||
A|--------------------------------||
E|------------(6)-----------------||
A|--------(5)-----(5)-------------||


Tabbed by John Bowdish of ImpurVisionsDotCom
Comments