Dry Cell - Body Crumbles Chords & Tabs

 

Body Crumbles Chords & Tabs

Dry Cell Chords & Tabs

Version: 3 Type: Bass Tab 0 ratings
1 star 2 stars 3 stars 4 stars 5 stars
comments

Body Crumbles Bass Tab

Intro/Verse:

G/-6---6-6-8-9-8h9p-----9---9-8---
D/---6--------------9-7---6-----9-
A/--------------------------------
E/--------------------------------

G/-6---6-6-8-9-8h9p---9/11-8-9-8h9p-
D/---6--------------9---------------
A/----------------------------------
E/----------------------------------


Chorus:
[ Tab from: http://www.guitartabs.cc/tabs/d/dry_cell/body_crumbles_btab_ver_3.html ]
G/-----------------------------
D/-------7-7-7-----------------
A/4-4--7-------O-7-7-5-5-5-5-0-
E/-----------------------------

G/-----------------------------
D/-------7-7-7-------9-9-9-9---
A/4-4--7-------0-7-7---------0-
E/-----------------------------

Bridge:

G/----------------------------------------------------
D/----------------------------------------------------
A/0-0-0-0-0-0-0-0-------------------------------------
E/----------------1-1-1-1-1-1-1-1-1-0-0-0-0-0-0-0-0-0-
Comments