Drunk At The Barrecchias - Hwang Pay Attention Chords & Tabs

 

Hwang Pay Attention Chords & Tabs

Drunk At The Barrecchias Chords & Tabs

Version: 1 Type: Bass Tab 0 ratings
1 star 2 stars 3 stars 4 stars 5 stars
comments

Hwang Pay Attention Bass Tab

   
-----------------------------------------------------------------------------
             "Hwang, Pay Attention" - Drunk at the Barrecchia's
-----------------------------------------------------------------------------

Tabbed By : Jizzy James
e-mail: drunkatthebarrecchias@yahoo.com

This is a classic Drunk at the Barrecchia's song, really festive. It took me a while to
tab, because it's so intricate. Enjoy...

You can visit this band on the web at: http://www.purevolume.com/drunkatthebarrecchias

Tuning: Standard EADG


Intro: (after "Hwang? You best pay attention...")
G|-------------------------------------------------------------------------|
D|----7--7--7--7--5----5--------------5------------------------------------|
A|--------------------------5----5-----------------------------------------|
E|-------------------------------------------------------------------------|


Verse: # X3
G|-------------------------------------------------------------------------|
D|-------------------------------------------------------------------------|
A|-----------7---------7--5--7---------7---------7--5--7-------------------|
E|----0--0-----0--0-------------0--0-----0--0------------------------------|
[ Tab from: http://www.guitartabs.cc/tabs/d/drunk_at_the_barrecchias/hwang_pay_attention_btab.html ]
G|-------------------------------------------------------------------------|
D|---------------------------------7--7--7--7--5----5---------------5------|
A|-----------7---------7--5--7----------------------------5----5-----------|
E|----0--0-----0--0--------------------------------------------------------|


Bridge:
G|----7----5-----------------------7----5----------------------------------|
D|----------------7----5-----------------------7----5----------------------|
A|-------------------------8--5-------------------------8--5---------------|
E|-------------------------------------------------------------------------|

G|----7----5---------------------------------------------------------------|
D|----------------7----5---------------------------------------------------|
A|-------------------------8--5--7-----------------------------------------|
E|-------------------------------------------------------------------------|


Outro:
G|----7----5-----------------------7----5----------------------------------|
D|----------------7----5-----------------------7----5----------------------|
A|-------------------------8--5-------------------------8--5---------------|
E|-------------------------------------------------------------------------|

G|----7----5---------------------------------------------------------------|
D|----------------7----5---------------------------------------------------|
A|-------------------------8--5--7--------7--------------------------------|
E|-------------------------------------------------------------------------|


Order:

Intro
Verse
Bridge
Verse
Outro


| /  slide up
| \  slide down
| h  hammer-on
| p  pull-off
| ~  vibrato
| +  harmonic
| x  Mute note
===============================================================================
Comments