Drowning Pool - The Game Chords & Tabs

 

The Game Chords & Tabs

Drowning Pool Chords & Tabs

Version: 2 Type: Tab 0 ratings
1 star 2 stars 3 stars 4 stars 5 stars
comments

The Game Tab

   
Band- Drowning Pool
Song- The Game

CHORD PATTERNS:
E|------------------||
B|------------------||
G|-8-------3--4-5-6-||
D|-6--4-6--1--2-3-4-||
A|----2-4-----------||
E|------------------||
   Ab B C# Eb E F F#


INTRO:
E|-------------------------|-------------------------|
B|-------------------------|-------------------------|
G|-----3-3-1-1-----1-1-1---|-----3-3-1-1-----1---1---|
D|-1-1---------2-2-------2-|-1-1---------2-2---2---2-|
A|-------------------------|-------------------------|
E|-------------------------|-------------------------|


E|-------------------------|-------------------------|
B|-------------------------|-------------------------|
G|-----3-3-1-1-----1-1-1---|-----3-3-1---------------|
D|-1-1---------2-2-------2-|-1-1---------------------|
A|-------------------------|-------------------------|
E|-------------------------|-------------------------|



PRE-VERSE: [Eb B C#]


VERSE:
   Eb              B     C#      Eb               F#   F
E|---------------------------------|---------------------------------|
B|---------------------------------|---------------------------------|
G|---------------------------------|---------------------------------|
D|-1-1-1-1-1-1-1-1-1---------------|-1-1-1-1-1-1-1-1-1-4-4-4-3-3-3-3-|
A|-------------------2-2-2-4-4-4-4-|---------------------------------|
E|---------------------------------|---------------------------------|
[ Tab from: http://www.guitartabs.cc/tabs/d/drowning_pool/the_game_tab_ver_2.html ]
   Eb                B      C#       Eb
E|---------------------------------|---------------------------------||
B|---------------------------------|---------------------------------||
G|---------------------------------|-3-3-3---3-3-3-------------------||
D|-1-1-1-1-1-1-1-1-1---------------|-1-1-1---1-1-1-------------------||
A|-------------------2-2-2-4-4-4-4-|---------------------------------||
E|---------------------------------|---------------------------------||
                                                           ALL THIS x2

CHORUS: [Eb B F# Ab] x4


REPEAT PRE VERSE, VERSE AND CHORUS


BRIDGE:

E|-------------------|---------------||
B|-------------------|---------------||
G|-------3-1---1-----|-------3-1---1-||
D|-1-1-1-----2---2-1-|-1-1-1-----2---||
A|-------------------|---------------||
E|-------------------|---------------||
                                   ALL THIS x4

E|-----------------------------|-11-repeat-as---||
B|-----------------------------|----fast-as-you-||
G|-----------------------------|----can-play----||
D|-1-1-1-------1-1-1---------0-|----------------||
A|-------2-2-2-------2-2-2-4---|----------------||
E|-----------------------------|----------------||


REPEAT CHORUS


OUTRO: [Eb E C#] x4
       [Eb B]


LYRICS:

PRE-VERSE:
Time to play the game x4

VERSE 1:
     Eb                          B            C#
It's all about the game you fall like the rest
Eb                  F#        F
Your failure is my success
            Eb                      B            C#
It's all about control, and what you make it
       Eb                    Eb   
I want to live on the pain you can't take it

VERSE 2:
I'm in control I am your pain
After this you won't be the same
This is my time I make the rules
You mess with this and you die like a fool

CHORUS:
Pain!
Here comes the pain! X4

VERSE 3:
I am the debt that can't be paid
You're going down in flames
This is my time I cannot lose
Live or die you'll have to choose!

VERSE 4:
It's all about me I am the one
Soon you'll see there's nowhere to run
I am the threat that is so real
Through the blood and the sweat the pain you will feel

REPEAT CHORUS

BRIDGE:
	Nowhere to run, nowhere to hide
	Now it's time to die
	I am the pian I am the game
	You won't forget my name!

REPEAT PRE-VERSE, CHORUS

OUTRO:
	Time to play the game!
	Pain!                 X4
Comments